Elysium IGES Interface                                                  S      1
1H,,1H;,7HUnknown,                                                      G      1
71HU:\BIM_DXF-DWG-IFC Formate konvertieren\iges-step\0059.0080_PP60RHL.iG      2
gs,52HPTC Creo Elements/Direct Modeling 19.0C  15-Aug-2015,             G      3
32HCreo Element/Direct IGES_3D V2.2,32,38,6,38,15,4HIGES,1.,2,2HMM,10,  G      4
1.,15H20170721.140802,2.000000000000000E-006,700.50000000000011,        G      5
7HUnknown,7HUnknown,11,3,15H20170721.140802,14HMIL-PRF-28000B;          G      6
     314       1       0       0       0       0       0       000000200D      1
     314       0       5       1       0                               0D      2
     314       2       0       0       0       0       0       000000200D      3
     314       0       8       1       0                               0D      4
     314       3       0       0       0       0       0       000000200D      5
     314       0       4       1       0                               0D      6
     502       4       0       0       0       0       0       001010001D      7
     502       0       0       4       1                               0D      8
     124       8       0       0       0       0       0       000010001D      9
     124       2      -3       2       0                               0D     10
     100      10       0       0       0       0       9       000010001D     11
     100       2      -3       1       0                               0D     12
     124      11       0       0       0       0       0       000010001D     13
     124       2      -3       1       0                               0D     14
     100      12       0       0       0       0      13       000010001D     15
     100       2      -3       1       0                               0D     16
     124      13       0       0       0       0       0       000010001D     17
     124       2      -3       2       0                               0D     18
     100      15       0       0       0       0      17       000010001D     19
     100       2      -3       2       0                               0D     20
     124      17       0       0       0       0       0       000010001D     21
     124       2      -3       1       0                               0D     22
     100      18       0       0       0       0      21       000010001D     23
     100       2      -3       2       0                               0D     24
     124      20       0       0       0       0       0       000010001D     25
     124       2      -3       2       0                               0D     26
     100      22       0       0       0       0      25       000010001D     27
     100       2      -3       1       0                               0D     28
     124      23       0       0       0       0       0       000010001D     29
     124       2      -3       1       0                               0D     30
     100      24       0       0       0       0      29       000010001D     31
     100       2      -3       1       0                               0D     32
     124      25       0       0       0       0       0       000010001D     33
     124       2      -3       2       0                               0D     34
     100      27       0       0       0       0      33       000010001D     35
     100       2      -3       2       0                               0D     36
     124      29       0       0       0       0       0       000010001D     37
     124       2      -3       1       0                               0D     38
     100      30       0       0       0       0      37       000010001D     39
     100       2      -3       2       0                               0D     40
     110      32       0       0       0       0       0       000010001D     41
     110       2      -3       1       0                               0D     42
     110      33       0       0       0       0       0       000010001D     43
     110       2      -3       1       0                               0D     44
     110      34       0       0       0       0       0       000010001D     45
     110       2      -3       1       0                               0D     46
     110      35       0       0       0       0       0       000010001D     47
     110       2      -3       2       0                               0D     48
     504      37       0       0       0       0       0       000010001D     49
     504       0       0       3       1                               0D     50
     128      40       0       0       0       0       0       000010001D     51
     128       0      -5       5       1                               0D     52
     126      45       0       0       0       0       0       000010501D     53
     126       2      -3       5       0                               0D     54
     126      50       0       0       0       0       0       000010501D     55
     126       2      -3       5       0                               0D     56
     508      55       0       0       0       0       0       000010001D     57
     508       0       0       1       1                               0D     58
     126      56       0       0       0       0       0       000010501D     59
     126       2      -3       5       0                               0D     60
     126      61       0       0       0       0       0       000010501D     61
     126       2      -3       5       0                               0D     62
     508      66       0       0       0       0       0       000010001D     63
     508       0       0       1       1                               0D     64
     510      67       0       1       0       0       0       000010001D     65
     510       0       0       1       1                               0D     66
     128      68       0       0       0       0       0       000010001D     67
     128       0      -5       5       1                               0D     68
     126      73       0       0       0       0       0       000010501D     69
     126       2      -3       5       0                               0D     70
     126      78       0       0       0       0       0       000010501D     71
     126       2      -3       5       0                               0D     72
     508      83       0       0       0       0       0       000010001D     73
     508       0       0       1       1                               0D     74
     126      84       0       0       0       0       0       000010501D     75
     126       2      -3       5       0                               0D     76
     126      89       0       0       0       0       0       000010501D     77
     126       2      -3       5       0                               0D     78
     508      94       0       0       0       0       0       000010001D     79
     508       0       0       1       1                               0D     80
     510      95       0       1       0       0       0       000010001D     81
     510       0       0       1       1                               0D     82
     128      96       0       0       0       0       0       000010001D     83
     128       0      -5      12       2                               0D     84
     126     108       0       0       0       0       0       000010501D     85
     126       2      -3       2       0                               0D     86
     126     110       0       0       0       0       0       000010501D     87
     126       2      -3       2       0                               0D     88
     126     112       0       0       0       0       0       000010501D     89
     126       2      -3       3       0                               0D     90
     126     115       0       0       0       0       0       000010501D     91
     126       2      -3       3       0                               0D     92
     508     118       0       0       0       0       0       000010001D     93
     508       0       0       2       1                               0D     94
     510     120       0       1       0       0       0       000010001D     95
     510       0       0       1       1                               0D     96
     128     121       0       0       0       0       0       000010001D     97
     128       0      -5      11       2                               0D     98
     126     132       0       0       0       0       0       000010501D     99
     126       2      -3       2       0                               0D    100
     126     134       0       0       0       0       0       000010501D    101
     126       2      -3       2       0                               0D    102
     126     136       0       0       0       0       0       000010501D    103
     126       2      -3       3       0                               0D    104
     126     139       0       0       0       0       0       000010501D    105
     126       2      -3       3       0                               0D    106
     508     142       0       0       0       0       0       000010001D    107
     508       0       0       2       1                               0D    108
     510     144       0       1       0       0       0       000010001D    109
     510       0       0       1       1                               0D    110
     128     145       0       0       0       0       0       000010001D    111
     128       0      -5      12       2                               0D    112
     126     157       0       0       0       0       0       000010501D    113
     126       2      -3       2       0                               0D    114
     126     159       0       0       0       0       0       000010501D    115
     126       2      -3       3       0                               0D    116
     126     162       0       0       0       0       0       000010501D    117
     126       2      -3       3       0                               0D    118
     126     165       0       0       0       0       0       000010501D    119
     126       2      -3       2       0                               0D    120
     508     167       0       0       0       0       0       000010001D    121
     508       0       0       2       1                               0D    122
     510     169       0       1       0       0       0       000010001D    123
     510       0       0       1       1                               0D    124
     128     170       0       0       0       0       0       000010001D    125
     128       0      -5      12       2                               0D    126
     126     182       0       0       0       0       0       000010501D    127
     126       2      -3       2       0                               0D    128
     126     184       0       0       0       0       0       000010501D    129
     126       2      -3       2       0                               0D    130
     126     186       0       0       0       0       0       000010501D    131
     126       2      -3       3       0                               0D    132
     126     189       0       0       0       0       0       000010501D    133
     126       2      -3       3       0                               0D    134
     508     192       0       0       0       0       0       000010001D    135
     508       0       0       2       1                               0D    136
     510     194       0       1       0       0       0       000010001D    137
     510       0       0       1       1                               0D    138
     514     195       0       0       0       0       0       000010001D    139
     514       0       0       1       1                               0D    140
     186     196       0       0       1       0       0       000020001D    141
     186       0      -3       1       0                               0D    142
     308     197       0       0       0       0       0       000020001D    143
     308       0       0       1       0                               0D    144
     124     198       0       0       0       0       0       000020001D    145
     124       0       0       1       0                               0D    146
     408     199       0       0       0       0     145       000020001D    147
     408       0       0       1       0                               0D    148
     308     200       0       0       0       0       0       000020001D    149
     308       0       0       1       0                               0D    150
     408     201       0       0       0       0       0       000000001D    151
     408       0       0       1       0                               0D    152
314,100.,100.,0.,0H;                                                   1P      1
314,60.,60.,60.,0H;                                                    3P      2
314,0.,0.,100.,0H;                                                     5P      3
502,8,-100.,0.000000000000012,0.,100.,0.,0.,-98.200000000000003,       7P      4
0.000000000000012,0.,98.200000000000003,0.,0.,-100.,                   7P      5
0.000000000000012,700.,100.,0.,700.,-98.200000000000003,               7P      6
0.000000000000012,700.,98.200000000000003,0.,700.;                     7P      7
124,-1.,-1.224646799147353E-016,0.,0.,1.224646799147353E-016,          9P      8
-1.,0.,0.,0.,0.,1.,0.;                                                 9P      9
100,0.,0.,0.,100.,0.,-100.,0.000000000000012;                         11P     10
124,1.,0.,0.,0.,0.,1.,0.,0.,0.,0.,1.,0.;                              13P     11
100,0.,0.,0.,100.,0.,-100.,0.000000000000012;                         15P     12
124,-1.,-1.224646799147353E-016,0.,0.,1.224646799147353E-016,         17P     13
-1.,0.,0.,0.,0.,1.,0.;                                                17P     14
100,0.,0.,0.,98.200000000000003,0.,-98.200000000000003,               19P     15
0.000000000000012;                                                    19P     16
124,1.,0.,0.,0.,0.,1.,0.,0.,0.,0.,1.,0.;                              21P     17
100,0.,0.,0.,98.200000000000003,0.,-98.200000000000003,               23P     18
0.000000000000012;                                                    23P     19
124,-1.,-1.224646799147353E-016,0.,0.,1.224646799147353E-016,         25P     20
-1.,0.,0.,0.,0.,1.,700.;                                              25P     21
100,0.,0.,0.,100.,0.,-100.,0.000000000000012;                         27P     22
124,1.,0.,0.,0.,0.,1.,0.,0.,0.,0.,1.,700.;                            29P     23
100,0.,0.,0.,100.,0.,-100.,0.000000000000012;                         31P     24
124,-1.,-1.224646799147353E-016,0.,0.,1.224646799147353E-016,         33P     25
-1.,0.,0.,0.,0.,1.,700.;                                              33P     26
100,0.,0.,0.,98.200000000000003,0.,-98.200000000000003,               35P     27
0.000000000000012;                                                    35P     28
124,1.,0.,0.,0.,0.,1.,0.,0.,0.,0.,1.,700.;                            37P     29
100,0.,0.,0.,98.200000000000003,0.,-98.200000000000003,               39P     30
0.000000000000012;                                                    39P     31
110,-100.,0.000000000000012,0.,-100.,0.000000000000012,700.;          41P     32
110,100.,0.,0.,100.,0.,700.;                                          43P     33
110,98.200000000000003,0.,0.,98.200000000000003,0.,700.;              45P     34
110,-98.200000000000003,0.000000000000012,0.,                         47P     35
-98.200000000000003,0.000000000000012,700.;                           47P     36
504,12,11,7,1,7,2,15,7,2,7,1,19,7,3,7,4,23,7,4,7,3,27,7,5,7,6,        49P     37
31,7,6,7,5,35,7,7,7,8,39,7,8,7,7,41,7,1,7,5,43,7,2,7,6,45,7,4,7,      49P     38
8,47,7,3,7,7;                                                         49P     39
128,1,1,1,1,0,0,1,0,0,0.,0.,1.,1.,0.,0.,1.,1.,1.,1.,1.,1.,            51P     40
-1.050000031500000E+002,-1.050000031500000E+002,0.,                   51P     41
-1.050000031500000E+002,1.050000031500000E+002,0.,                    51P     42
1.050000031500000E+002,-1.050000031500000E+002,0.,                    51P     43
1.050000031500000E+002,1.050000031500000E+002,0.,0.,1.,0.,1.;         51P     44
126,4,2,0,0,0,0,0.,0.,0.,0.5,0.5,1.,1.,1.,1.,0.707106781186548,       53P     45
1.,0.707106781186548,1.,0.5,0.976190461904762,0.,                     53P     46
0.976190461904762,0.976190461904762,0.,0.976190461904762,0.5,0.,      53P     47
0.976190461904762,0.023809538095238,0.,0.5,0.023809538095238,0.,      53P     48
0.,1.,0.,0.,0.;                                                       53P     49
126,4,2,0,0,0,0,0.,0.,0.,0.5,0.5,1.,1.,1.,1.,0.707106781186548,       55P     50
1.,0.707106781186548,1.,0.5,0.023809538095238,0.,                     55P     51
0.023809538095238,0.023809538095238,0.,0.023809538095238,0.5,0.,      55P     52
0.023809538095238,0.976190461904762,0.,0.5,0.976190461904762,0.,      55P     53
0.,1.,0.,0.,0.;                                                       55P     54
508,2,0,49,2,0,1,0,53,0,49,1,0,1,0,55;                                57P     55
126,4,2,0,0,0,0,0.,0.,0.,0.5,0.5,1.,1.,1.,1.,0.707106781186548,       59P     56
1.,0.707106781186548,1.,0.5,0.967619033590476,0.,                     59P     57
0.967619033590476,0.967619033590477,0.,0.967619033590476,0.5,0.,      59P     58
0.967619033590477,0.032380966409523,0.,0.5,0.032380966409523,0.,      59P     59
0.,1.,0.,0.,0.;                                                       59P     60
126,4,2,0,0,0,0,0.,0.,0.,0.5,0.5,1.,1.,1.,1.,0.707106781186548,       61P     61
1.,0.707106781186548,1.,0.5,0.032380966409523,0.,                     61P     62
0.032380966409524,0.032380966409523,0.,0.032380966409523,0.5,0.,      61P     63
0.032380966409523,0.967619033590476,0.,0.5,0.967619033590476,0.,      61P     64
0.,1.,0.,0.,0.;                                                       61P     65
508,2,0,49,4,1,1,0,59,0,49,3,1,1,0,61;                                63P     66
510,51,2,1,57,63;                                                     65P     67
128,1,1,1,1,0,0,1,0,0,0.,0.,1.,1.,0.,0.,1.,1.,1.,1.,1.,1.,            67P     68
-1.050000031500000E+002,-1.050000031500000E+002,700.,                 67P     69
1.050000031500000E+002,-1.050000031500000E+002,700.,                  67P     70
-1.050000031500000E+002,1.050000031500000E+002,700.,                  67P     71
1.050000031500000E+002,1.050000031500000E+002,700.,0.,1.,0.,1.;       67P     72
126,4,2,0,0,0,0,0.,0.,0.,0.5,0.5,1.,1.,1.,1.,0.707106781186548,       69P     73
1.,0.707106781186548,1.,0.023809538095238,0.5,0.,                     69P     74
0.023809538095238,0.023809538095238,0.,0.5,0.023809538095238,0.,      69P     75
0.976190461904762,0.023809538095238,0.,0.976190461904762,0.5,0.,      69P     76
0.,1.,0.,0.,0.;                                                       69P     77
126,4,2,0,0,0,0,0.,0.,0.,0.5,0.5,1.,1.,1.,1.,0.707106781186548,       71P     78
1.,0.707106781186548,1.,0.976190461904762,0.5,0.,                     71P     79
0.976190461904762,0.976190461904762,0.,0.5,0.976190461904762,0.,      71P     80
0.023809538095238,0.976190461904762,0.,0.023809538095238,0.5,0.,      71P     81
0.,1.,0.,0.,0.;                                                       71P     82
508,2,0,49,5,1,1,0,69,0,49,6,1,1,0,71;                                73P     83
126,4,2,0,0,0,0,0.,0.,0.,0.5,0.5,1.,1.,1.,1.,0.707106781186548,       75P     84
1.,0.707106781186548,1.,0.032380966409523,0.5,0.,                     75P     85
0.032380966409523,0.032380966409524,0.,0.5,0.032380966409523,0.,      75P     86
0.967619033590476,0.032380966409523,0.,0.967619033590476,0.5,0.,      75P     87
0.,1.,0.,0.,0.;                                                       75P     88
126,4,2,0,0,0,0,0.,0.,0.,0.5,0.5,1.,1.,1.,1.,0.707106781186548,       77P     89
1.,0.707106781186548,1.,0.967619033590476,0.5,0.,                     77P     90
0.967619033590477,0.967619033590476,0.,0.5,0.967619033590476,0.,      77P     91
0.032380966409523,0.967619033590477,0.,0.032380966409523,0.5,0.,      77P     92
0.,1.,0.,0.,0.;                                                       77P     93
508,2,0,49,7,0,1,0,75,0,49,8,0,1,0,77;                                79P     94
510,67,2,1,73,79;                                                     81P     95
128,4,1,2,1,0,0,0,0,0,0.,0.,0.,0.352750809061489,                     83P     96
0.352750809061489,1.,1.,1.,0.,0.,1.,1.,0.752025,0.7275,1.,0.5,        83P     97
1.,0.752025,0.7275,1.,0.5,1.,-99.461454074000159,                     83P     98
10.364321178232093,-0.5,-106.18556701030931,-54.163788140469997,      83P     99
-0.500000000000002,-5.000000000000004E+001,-86.602540378443834,       83P    100
-0.499999999999996,99.999999999999815,-173.20508075688778,-0.5,       83P    101
100.,-2.449293598294706E-014,-0.499999999999996,                      83P    102
-99.461454074000173,10.364321178232093,700.49999999999977,            83P    103
-106.18556701030931,-54.163788140469997,700.5,                        83P    104
-5.000000000000004E+001,-86.602540378443834,700.5,                    83P    105
99.999999999999829,-173.20508075688778,700.5,100.,                    83P    106
-2.449293598294706E-014,700.5,0.,1.,0.,1.;                            83P    107
126,1,1,0,0,1,0,0.,0.,1.,1.,1.,1.,1.,0.000713266761769,0.,1.,         85P    108
0.999286733238231,0.,0.,1.,0.,0.,0.;                                  85P    109
126,1,1,0,0,1,0,0.,0.,1.,1.,1.,1.,0.029126213592233,                  87P    110
0.999286733238231,0.,1.,0.999286733238231,0.,0.,1.,0.,0.,0.;          87P    111
126,1,1,0,0,1,0,0.,0.,1.,1.,1.,1.,0.029126213592233,                  89P    112
0.000713266761769,0.,0.029126213592233,0.999286733238231,0.,0.,       89P    113
1.,0.,0.,0.;                                                          89P    114
126,1,1,0,0,1,0,0.,0.,1.,1.,1.,1.,0.029126213592233,                  91P    115
0.000713266761769,0.,0.999999999999995,0.000713266761769,0.,0.,       91P    116
1.,0.,0.,0.;                                                          91P    117
508,4,0,49,10,1,1,0,85,0,49,5,0,1,0,87,0,49,9,0,1,0,89,0,49,1,1,      93P    118
1,0,91;                                                               93P    119
510,83,1,1,93;                                                        95P    120
128,4,1,2,1,0,0,0,0,0,0.,0.,0.,0.647249190938511,                     97P    121
0.647249190938511,1.,1.,1.,0.,0.,1.,1.,1.,0.5,1.,0.7275,              97P    122
0.752025,1.,0.5,1.,0.7275,0.752025,100.,0.,-0.499999999999996,        97P    123
100.,173.2050807568877,-0.5,-49.999999999999979,                      97P    124
86.602540378443877,-0.499999999999996,-106.18556701030928,            97P    125
54.163788140470047,-0.500000000000002,-99.461454074000173,            97P    126
-10.364321178232048,-0.5,100.,0.,700.50000000000011,100.,             97P    127
173.2050807568877,700.50000000000011,-49.999999999999979,             97P    128
86.602540378443877,700.50000000000011,-106.18556701030928,            97P    129
54.163788140470047,700.5,-99.461454074000201,                         97P    130
-10.364321178232048,700.49999999999989,0.,1.,0.,1.;                   97P    131
126,1,1,0,0,1,0,0.,0.,1.,1.,1.,1.,0.,0.000713266761769,0.,0.,         99P    132
0.999286733238231,0.,0.,1.,0.,0.,0.;                                  99P    133
126,1,1,0,0,1,0,0.,0.,1.,1.,1.,1.,0.,0.000713266761769,0.,           101P    134
0.970873786407767,0.000713266761769,0.,0.,1.,0.,0.,0.;               101P    135
126,1,1,0,0,1,0,0.,0.,1.,1.,1.,1.,0.970873786407767,                 103P    136
0.000713266761769,0.,0.970873786407767,0.999286733238231,0.,0.,      103P    137
1.,0.,0.,0.;                                                         103P    138
126,1,1,0,0,1,0,0.,0.,1.,1.,1.,1.,5.004113632617856E-015,            105P    139
0.999286733238231,0.,0.970873786407767,0.999286733238231,0.,0.,      105P    140
1.,0.,0.,0.;                                                         105P    141
508,4,0,49,10,0,1,0,99,0,49,2,1,1,0,101,0,49,9,1,1,0,103,0,49,6,     107P    142
0,1,0,105;                                                           107P    143
510,97,1,1,107;                                                      109P    144
128,1,4,1,2,0,0,0,0,0,0.,0.,1.,1.,0.,0.,0.,0.352750809061489,        111P    145
0.352750809061489,1.,1.,1.,0.752025,0.752025,0.7275,0.7275,1.,       111P    146
1.,0.5,0.5,1.,1.,-97.671147900668174,10.177763397023909,-0.5,        111P    147
-97.671147900668174,10.177763397023909,700.49999999999977,           111P    148
-104.27422680412374,-53.188839953941539,-0.500000000000002,          111P    149
-104.27422680412374,-53.188839953941539,700.5,                       111P    150
-49.100000000000044,-85.043694651631853,-0.499999999999996,          111P    151
-49.100000000000044,-85.043694651631853,700.5,                       111P    152
98.199999999999832,-170.08738930326379,-0.5,98.199999999999832,      111P    153
-170.08738930326379,700.5,98.199999999999989,                        111P    154
-2.405206313525402E-014,-0.499999999999996,98.200000000000003,       111P    155
-2.405206313525402E-014,700.5,0.,1.,0.,1.;                           111P    156
126,1,1,0,0,1,0,0.,0.,1.,1.,1.,1.,0.000713266761769,1.,0.,           113P    157
0.999286733238231,1.,0.,0.,1.,0.,0.,0.;                              113P    158
126,1,1,0,0,1,0,0.,0.,1.,1.,1.,1.,0.000713266761769,                 115P    159
0.029126213592233,0.,0.000713266761769,0.999999999999995,0.,0.,      115P    160
1.,0.,0.,0.;                                                         115P    161
126,1,1,0,0,1,0,0.,0.,1.,1.,1.,1.,0.000713266761769,                 117P    162
0.029126213592233,0.,0.999286733238231,0.029126213592233,0.,0.,      117P    163
1.,0.,0.,0.;                                                         117P    164
126,1,1,0,0,1,0,0.,0.,1.,1.,1.,1.,0.999286733238231,                 119P    165
0.029126213592233,0.,0.999286733238231,1.,0.,0.,1.,0.,0.,0.;         119P    166
508,4,0,49,11,0,1,0,113,0,49,3,0,1,0,115,0,49,12,1,1,0,117,0,49,     121P    167
7,1,1,0,119;                                                         121P    168
510,111,1,1,121;                                                     123P    169
128,1,4,1,2,0,0,0,0,0,0.,0.,1.,1.,0.,0.,0.,0.647249190938511,        125P    170
0.647249190938511,1.,1.,1.,1.,1.,0.5,0.5,1.,1.,0.7275,0.7275,        125P    171
0.752025,0.752025,98.199999999999989,0.,-0.499999999999996,          125P    172
98.200000000000003,0.,700.50000000000011,98.200000000000003,         125P    173
170.08738930326371,-0.5,98.200000000000003,170.08738930326371,       125P    174
700.50000000000011,-49.099999999999973,85.043694651631881,           125P    175
-0.499999999999996,-49.09999999999998,85.043694651631881,            125P    176
700.50000000000011,-104.27422680412371,53.188839953941581,           125P    177
-0.500000000000002,-104.27422680412371,53.188839953941581,700.5,     125P    178
-97.671147900668174,-10.177763397023876,-0.5,                        125P    179
-97.671147900668174,-10.177763397023877,700.49999999999989,0.,       125P    180
1.,0.,1.;                                                            125P    181
126,1,1,0,0,1,0,0.,0.,1.,1.,1.,1.,0.000713266761769,0.,0.,           127P    182
0.000713266761769,0.970873786407767,0.,0.,1.,0.,0.,0.;               127P    183
126,1,1,0,0,1,0,0.,0.,1.,1.,1.,1.,0.000713266761769,0.,0.,           129P    184
0.999286733238231,0.,0.,0.,1.,0.,0.,0.;                              129P    185
126,1,1,0,0,1,0,0.,0.,1.,1.,1.,1.,0.999286733238231,                 131P    186
5.004113632617856E-015,0.,0.999286733238231,0.970873786407767,       131P    187
0.,0.,1.,0.,0.,0.;                                                   131P    188
126,1,1,0,0,1,0,0.,0.,1.,1.,1.,1.,0.000713266761769,                 133P    189
0.970873786407767,0.,0.999286733238231,0.970873786407767,0.,0.,      133P    190
1.,0.,0.,0.;                                                         133P    191
508,4,0,49,4,0,1,0,127,0,49,11,1,1,0,129,0,49,8,1,1,0,131,0,49,      135P    192
12,0,1,0,133;                                                        135P    193
510,125,1,1,135;                                                     137P    194
514,6,65,1,81,1,95,1,109,1,123,1,137,1;                              139P    195
186,139,1,0;                                                         141P    196
308,0,17H0059.0080_PP60RHL,1,141;                                    143P    197
124,1.,0.,0.,0.,0.,1.,0.,0.,0.,0.,1.,0.;                             145P    198
408,143,0.,0.,0.,1.;                                                 147P    199
308,0,9HAssembly1,1,147;                                             149P    200
408,149,0.,0.,0.,1.;                                                 151P    201
S      1G      6D    152P    201                                        T      1
