Elysium IGES Interface                                                  S      1
1H,,1H;,7HUnknown,                                                      G      1
53HF:\cad6\Haustechnik\PP 45 AIT\0059 0082 PP 45 RHL.igs,               G      2
52HPTC Creo Elements/Direct Modeling 19.0C  15-Aug-2015,                G      3
32HCreo Element/Direct IGES_3D V2.2,32,38,6,38,15,4HIGES,1.,2,2HMM,10,  G      4
1.,15H20180830.102047,2.000000000000000E-006,617.67104745042525,        G      5
7HUnknown,7HUnknown,11,3,15H20180830.102047,14HMIL-PRF-28000B;          G      6
     314       1       0       0       0       0       0       000000200D      1
     314       0       5       1       0                               0D      2
     314       2       0       0       0       0       0       000000200D      3
     314       0       8       1       0                               0D      4
     314       3       0       0       0       0       0       000000200D      5
     314       0       4       1       0                               0D      6
     502       4       0       0       0       0       0       001010001D      7
     502       0       0       5       1                               0D      8
     124       9       0       0       0       0       0       000010001D      9
     124       2      -3       2       0                               0D     10
     100      11       0       0       0       0       9       000010001D     11
     100       2      -3       1       0                               0D     12
     110      12       0       0       0       0       0       000010001D     13
     110       2      -3       1       0                               0D     14
     124      13       0       0       0       0       0       000010001D     15
     124       2      -3       2       0                               0D     16
     100      15       0       0       0       0      15       000010001D     17
     100       2      -3       1       0                               0D     18
     110      16       0       0       0       0       0       000010001D     19
     110       2      -3       2       0                               0D     20
     124      18       0       0       0       0       0       000010001D     21
     124       2      -3       1       0                               0D     22
     100      19       0       0       0       0      21       000010001D     23
     100       2      -3       1       0                               0D     24
     124      20       0       0       0       0       0       000010001D     25
     124       2      -3       2       0                               0D     26
     100      22       0       0       0       0      25       000010001D     27
     100       2      -3       1       0                               0D     28
     124      23       0       0       0       0       0       000010001D     29
     124       2      -3       1       0                               0D     30
     100      24       0       0       0       0      29       000010001D     31
     100       2      -3       1       0                               0D     32
     124      25       0       0       0       0       0       000010001D     33
     124       2      -3       1       0                               0D     34
     100      26       0       0       0       0      33       000010001D     35
     100       2      -3       1       0                               0D     36
     110      27       0       0       0       0       0       000010001D     37
     110       2      -3       2       0                               0D     38
     124      29       0       0       0       0       0       000010001D     39
     124       2      -3       2       0                               0D     40
     100      31       0       0       0       0      39       000010001D     41
     100       2      -3       1       0                               0D     42
     110      32       0       0       0       0       0       000010001D     43
     110       2      -3       1       0                               0D     44
     124      33       0       0       0       0       0       000010001D     45
     124       2      -3       1       0                               0D     46
     100      34       0       0       0       0      45       000010001D     47
     100       2      -3       1       0                               0D     48
     504      35       0       0       0       0       0       000010001D     49
     504       0       0       3       1                               0D     50
     128      38       0       0       0       0       0       000010001D     51
     128       0      -5      13       2                               0D     52
     126      51       0       0       0       0       0       000010501D     53
     126       2      -3       2       0                               0D     54
     126      53       0       0       0       0       0       000010501D     55
     126       2      -3       2       0                               0D     56
     126      55       0       0       0       0       0       000010501D     57
     126       2      -3       3       0                               0D     58
     126      58       0       0       0       0       0       000010501D     59
     126       2      -3       3       0                               0D     60
     508      61       0       0       0       0       0       000010001D     61
     508       0       0       2       1                               0D     62
     510      63       0       1       0       0       0       000010001D     63
     510       0       0       1       1                               0D     64
     128      64       0       0       0       0       0       000010001D     65
     128       0      -5       7       1                               0D     66
     126      71       0       0       0       0       0       000010501D     67
     126       2      -3       5       0                               0D     68
     126      76       0       0       0       0       0       000010501D     69
     126       2      -3       5       0                               0D     70
     508      81       0       0       0       0       0       000010001D     71
     508       0       0       1       1                               0D     72
     126      82       0       0       0       0       0       000010501D     73
     126       2      -3       5       0                               0D     74
     126      87       0       0       0       0       0       000010501D     75
     126       2      -3       5       0                               0D     76
     508      92       0       0       0       0       0       000010001D     77
     508       0       0       1       1                               0D     78
     510      93       0       1       0       0       0       000010001D     79
     510       0       0       1       1                               0D     80
     128      94       0       0       0       0       0       000010001D     81
     128       0      -5      11       2                               0D     82
     126     105       0       0       0       0       0       000010501D     83
     126       2      -3       2       0                               0D     84
     126     107       0       0       0       0       0       000010501D     85
     126       2      -3       2       0                               0D     86
     126     109       0       0       0       0       0       000010501D     87
     126       2      -3       3       0                               0D     88
     126     112       0       0       0       0       0       000010501D     89
     126       2      -3       3       0                               0D     90
     508     115       0       0       0       0       0       000010001D     91
     508       0       0       2       1                               0D     92
     510     117       0       1       0       0       0       000010001D     93
     510       0       0       1       1                               0D     94
     128     118       0       0       0       0       0       000010001D     95
     128       0      -5      13       2                               0D     96
     126     131       0       0       0       0       0       000010501D     97
     126       2      -3       2       0                               0D     98
     126     133       0       0       0       0       0       000010501D     99
     126       2      -3       3       0                               0D    100
     126     136       0       0       0       0       0       000010501D    101
     126       2      -3       3       0                               0D    102
     126     139       0       0       0       0       0       000010501D    103
     126       2      -3       2       0                               0D    104
     508     141       0       0       0       0       0       000010001D    105
     508       0       0       2       1                               0D    106
     510     143       0       1       0       0       0       000010001D    107
     510       0       0       1       1                               0D    108
     128     144       0       0       0       0       0       000010001D    109
     128       0      -5       7       1                               0D    110
     126     151       0       0       0       0       0       000010501D    111
     126       2      -3       5       0                               0D    112
     126     156       0       0       0       0       0       000010501D    113
     126       2      -3       5       0                               0D    114
     508     161       0       0       0       0       0       000010001D    115
     508       0       0       1       1                               0D    116
     126     162       0       0       0       0       0       000010501D    117
     126       2      -3       5       0                               0D    118
     126     167       0       0       0       0       0       000010501D    119
     126       2      -3       5       0                               0D    120
     508     172       0       0       0       0       0       000010001D    121
     508       0       0       1       1                               0D    122
     510     173       0       1       0       0       0       000010001D    123
     510       0       0       1       1                               0D    124
     128     174       0       0       0       0       0       000010001D    125
     128       0      -5      11       2                               0D    126
     126     185       0       0       0       0       0       000010501D    127
     126       2      -3       2       0                               0D    128
     126     187       0       0       0       0       0       000010501D    129
     126       2      -3       2       0                               0D    130
     126     189       0       0       0       0       0       000010501D    131
     126       2      -3       3       0                               0D    132
     126     192       0       0       0       0       0       000010501D    133
     126       2      -3       3       0                               0D    134
     508     195       0       0       0       0       0       000010001D    135
     508       0       0       2       1                               0D    136
     510     197       0       1       0       0       0       000010001D    137
     510       0       0       1       1                               0D    138
     514     198       0       0       0       0       0       000010001D    139
     514       0       0       1       1                               0D    140
     186     199       0       0       1       0       0       000020001D    141
     186       0      -3       1       0                               0D    142
     308     200       0       0       0       0       0       000020001D    143
     308       0       0       1       0                               0D    144
     124     201       0       0       0       0       0       000020001D    145
     124       0       0       1       0                               0D    146
     408     202       0       0       0       0     145       000020001D    147
     408       0       0       1       0                               0D    148
     308     203       0       0       0       0       0       000020001D    149
     308       0       0       1       0                               0D    150
     408     204       0       0       0       0       0       000000001D    151
     408       0       0       1       0                               0D    152
314,100.,100.,0.,0H;                                                   1P      1
314,60.,60.,60.,0H;                                                    3P      2
314,0.,0.,100.,0H;                                                     5P      3
502,8,-80.,0.00000000000001,-182.82895254957498,80.,0.,                7P      4
-182.82895254957498,80.,0.,617.17104745042502,-80.,                    7P      5
0.00000000000001,617.17104745042502,-77.,0.000000000000009,            7P      6
-182.82895254957498,77.,0.,-182.82895254957498,-77.,                   7P      7
0.000000000000009,617.17104745042502,77.,0.,617.17104745042502;        7P      8
124,-1.,-1.224646799147353E-016,0.,0.,1.224646799147353E-016,          9P      9
-1.,0.,0.,0.,0.,1.,-182.82895254957498;                                9P     10
100,0.,0.,0.,80.,0.,-80.,0.00000000000001;                            11P     11
110,80.,0.,-182.82895254957498,80.,0.,617.17104745042502;             13P     12
124,-1.,-1.224646799147353E-016,0.,0.,1.224646799147353E-016,         15P     13
-1.,0.,0.,0.,0.,1.,617.17104745042502;                                15P     14
100,0.,0.,0.,80.,0.,-80.,0.00000000000001;                            17P     15
110,-80.,0.00000000000001,-182.82895254957498,-80.,                   19P     16
0.00000000000001,617.17104745042502;                                  19P     17
124,1.,0.,0.,0.,0.,1.,0.,0.,0.,0.,1.,-182.82895254957498;             21P     18
100,0.,0.,0.,80.,0.,-80.,0.00000000000001;                            23P     19
124,-1.,-1.224646799147353E-016,0.,0.,1.224646799147353E-016,         25P     20
-1.,0.,0.,0.,0.,1.,-182.82895254957498;                               25P     21
100,0.,0.,0.,77.,0.,-77.,0.000000000000009;                           27P     22
124,1.,0.,0.,0.,0.,1.,0.,0.,0.,0.,1.,-182.82895254957498;             29P     23
100,0.,0.,0.,77.,0.,-77.,0.000000000000009;                           31P     24
124,1.,0.,0.,0.,0.,1.,0.,0.,0.,0.,1.,617.17104745042502;              33P     25
100,0.,0.,0.,80.,0.,-80.,0.00000000000001;                            35P     26
110,-77.,0.000000000000009,-182.82895254957498,-77.,                  37P     27
0.000000000000009,617.17104745042502;                                 37P     28
124,-1.,-1.224646799147353E-016,0.,0.,1.224646799147353E-016,         39P     29
-1.,0.,0.,0.,0.,1.,617.17104745042502;                                39P     30
100,0.,0.,0.,77.,0.,-77.,0.000000000000009;                           41P     31
110,77.,0.,-182.82895254957498,77.,0.,617.17104745042502;             43P     32
124,1.,0.,0.,0.,0.,1.,0.,0.,0.,0.,1.,617.17104745042502;              45P     33
100,0.,0.,0.,77.,0.,-77.,0.000000000000009;                           47P     34
504,12,11,7,1,7,2,13,7,2,7,3,17,7,4,7,3,19,7,1,7,4,23,7,2,7,1,        49P     35
27,7,5,7,6,31,7,6,7,5,35,7,3,7,4,37,7,5,7,7,41,7,7,7,8,43,7,6,7,      49P     36
8,47,7,8,7,7;                                                         49P     37
128,4,1,2,1,0,0,0,0,0,0.,0.,0.,0.352750809061489,                     51P     38
0.352750809061489,1.,1.,1.,0.,0.,1.,1.,0.752025,0.7275,1.,0.5,        51P     39
1.,0.752025,0.7275,1.,0.5,1.,-79.569163259200167,                     51P     40
8.291456942585642,-183.32895254957501,-84.948453608247434,            51P     41
-43.331030512376017,-183.32895254957495,-4.000000000000004E+001,      51P     42
-69.28203230275507,-183.32895254957495,79.999999999999872,            51P     43
-138.56406460551023,-183.32895254957498,80.,                          51P     44
-1.959434878635765E-014,-183.32895254957495,-79.569163259200167,      51P     45
8.291456942585642,617.67104745042525,-84.948453608247434,             51P     46
-43.331030512376017,617.67104745042525,-4.000000000000004E+001,       51P     47
-69.28203230275507,617.67104745042514,79.999999999999872,             51P     48
-138.56406460551023,617.67104745042514,80.,                           51P     49
-1.959434878635765E-014,617.67104745042514,0.,1.,0.,1.;               51P     50
126,1,1,0,0,1,0,0.,0.,1.,1.,1.,1.,1.,0.000624219725343,0.,1.,         53P     51
0.999375780274656,0.,0.,1.,0.,0.,0.;                                  53P     52
126,1,1,0,0,1,0,0.,0.,1.,1.,1.,1.,0.029126213592233,                  55P     53
0.999375780274656,0.,1.,0.999375780274657,0.,0.,1.,0.,0.,0.;          55P     54
126,1,1,0,0,1,0,0.,0.,1.,1.,1.,1.,0.029126213592233,                  57P     55
0.000624219725343,0.,0.029126213592233,0.999375780274656,0.,0.,       57P     56
1.,0.,0.,0.;                                                          57P     57
126,1,1,0,0,1,0,0.,0.,1.,1.,1.,1.,0.029126213592233,                  59P     58
0.000624219725343,0.,0.999999999999995,0.000624219725343,0.,0.,       59P     59
1.,0.,0.,0.;                                                          59P     60
508,4,0,49,2,1,1,0,53,0,49,3,0,1,0,55,0,49,4,0,1,0,57,0,49,1,1,       61P     61
1,0,59;                                                               61P     62
510,51,1,1,61;                                                        63P     63
128,1,1,1,1,0,0,1,0,0,0.,0.,1.,1.,0.,0.,1.,1.,1.,1.,1.,1.,            65P     64
-8.400000315000000E+001,8.400000315000000E+001,                       65P     65
-182.82895254957498,8.400000315000000E+001,                           65P     66
8.400000315000000E+001,-182.82895254957498,                           65P     67
-8.400000315000000E+001,-8.400000315000000E+001,                      65P     68
-182.82895254957498,8.400000315000000E+001,                           65P     69
-8.400000315000000E+001,-182.82895254957498,0.,1.,0.,1.;              65P     70
126,4,2,0,0,0,0,0.,0.,0.,0.5,0.5,1.,1.,1.,1.,0.707106781186548,       67P     71
1.,0.707106781186548,1.,0.976190458333334,0.5,0.,                     67P     72
0.976190458333334,0.023809541666666,0.,0.5,0.023809541666666,0.,      67P     73
0.023809541666666,0.023809541666666,0.,0.023809541666666,0.5,0.,      67P     74
0.,1.,0.,0.,0.;                                                       67P     75
126,4,2,0,0,0,0,0.,0.,0.,0.5,0.5,1.,1.,1.,1.,0.707106781186548,       69P     76
1.,0.707106781186548,1.,0.023809541666666,0.5,0.,                     69P     77
0.023809541666666,0.976190458333334,0.,0.5,0.976190458333334,0.,      69P     78
0.976190458333334,0.976190458333334,0.,0.976190458333334,0.5,0.,      69P     79
0.,1.,0.,0.,0.;                                                       69P     80
508,2,0,49,5,0,1,0,67,0,49,1,0,1,0,69;                                71P     81
126,4,2,0,0,0,0,0.,0.,0.,0.5,0.5,1.,1.,1.,1.,0.707106781186548,       73P     82
1.,0.707106781186548,1.,0.958333316145834,0.5,0.,                     73P     83
0.958333316145834,0.041666683854166,0.,0.5,0.041666683854166,0.,      73P     84
0.041666683854166,0.041666683854166,0.,0.041666683854166,0.5,0.,      73P     85
0.,1.,0.,0.,0.;                                                       73P     86
126,4,2,0,0,0,0,0.,0.,0.,0.5,0.5,1.,1.,1.,1.,0.707106781186548,       75P     87
1.,0.707106781186548,1.,0.041666683854166,0.5,0.,                     75P     88
0.041666683854166,0.958333316145834,0.,0.5,0.958333316145834,0.,      75P     89
0.958333316145834,0.958333316145834,0.,0.958333316145834,0.5,0.,      75P     90
0.,1.,0.,0.,0.;                                                       75P     91
508,2,0,49,7,1,1,0,73,0,49,6,1,1,0,75;                                77P     92
510,65,2,1,71,77;                                                     79P     93
128,4,1,2,1,0,0,0,0,0,0.,0.,0.,0.647249190938511,                     81P     94
0.647249190938511,1.,1.,1.,0.,0.,1.,1.,1.,0.5,1.,0.7275,              81P     95
0.752025,1.,0.5,1.,0.7275,0.752025,80.,0.,-183.32895254957498,        81P     96
80.,138.56406460551014,-183.32895254957501,-39.999999999999986,       81P     97
69.282032302755084,-183.32895254957498,-84.948453608247419,           81P     98
43.331030512376039,-183.32895254957501,-79.569163259200153,           81P     99
-8.29145694258564,-183.32895254957492,80.,0.,617.67104745042502,      81P    100
80.,138.56406460551014,617.67104745042502,-39.999999999999986,        81P    101
69.282032302755098,617.67104745042502,-84.948453608247419,            81P    102
43.331030512376039,617.67104745042502,-79.569163259200153,            81P    103
-8.29145694258564,617.67104745042502,0.,1.,0.,1.;                     81P    104
126,1,1,0,0,1,0,0.,0.,1.,1.,1.,1.,0.,0.000624219725343,0.,0.,         83P    105
0.999375780274656,0.,0.,1.,0.,0.,0.;                                  83P    106
126,1,1,0,0,1,0,0.,0.,1.,1.,1.,1.,0.,0.000624219725343,0.,            85P    107
0.970873786407767,0.000624219725343,0.,0.,1.,0.,0.,0.;                85P    108
126,1,1,0,0,1,0,0.,0.,1.,1.,1.,1.,0.970873786407767,                  87P    109
0.000624219725343,0.,0.970873786407767,0.999375780274656,0.,0.,       87P    110
1.,0.,0.,0.;                                                          87P    111
126,1,1,0,0,1,0,0.,0.,1.,1.,1.,1.,5.004113613343745E-015,             89P    112
0.999375780274657,0.,0.970873786407767,0.999375780274656,0.,0.,       89P    113
1.,0.,0.,0.;                                                          89P    114
508,4,0,49,2,0,1,0,83,0,49,5,1,1,0,85,0,49,4,1,1,0,87,0,49,8,0,       91P    115
1,0,89;                                                               91P    116
510,81,1,1,91;                                                        93P    117
128,1,4,1,2,0,0,0,0,0,0.,0.,1.,1.,0.,0.,0.,0.352750809061489,         95P    118
0.352750809061489,1.,1.,1.,0.752025,0.752025,0.7275,0.7275,1.,        95P    119
1.,0.5,0.5,1.,1.,-76.585319636980131,7.98052730723871,                95P    120
-183.32895254957498,-76.585319636980131,7.98052730723871,             95P    121
617.67104745042514,-81.762886597938163,-41.706116868161907,           95P    122
-183.32895254957501,-81.762886597938163,-41.706116868161907,          95P    123
617.67104745042514,-38.500000000000036,-66.683956091401754,           95P    124
-183.32895254957498,-38.500000000000036,-66.683956091401754,          95P    125
617.67104745042514,76.999999999999872,-133.36791218280359,            95P    126
-183.32895254957501,76.999999999999872,-133.36791218280359,           95P    127
617.67104745042514,77.,-1.885956070686924E-014,                       95P    128
-183.32895254957498,77.,-1.885956070686924E-014,                      95P    129
617.67104745042514,0.,1.,0.,1.;                                       95P    130
126,1,1,0,0,1,0,0.,0.,1.,1.,1.,1.,0.000624219725343,1.,0.,            97P    131
0.999375780274656,1.,0.,0.,1.,0.,0.,0.;                               97P    132
126,1,1,0,0,1,0,0.,0.,1.,1.,1.,1.,0.000624219725343,                  99P    133
0.029126213592233,0.,0.000624219725343,0.999999999999995,0.,0.,       99P    134
1.,0.,0.,0.;                                                          99P    135
126,1,1,0,0,1,0,0.,0.,1.,1.,1.,1.,0.000624219725343,                 101P    136
0.029126213592233,0.,0.999375780274656,0.029126213592233,0.,0.,      101P    137
1.,0.,0.,0.;                                                         101P    138
126,1,1,0,0,1,0,0.,0.,1.,1.,1.,1.,0.999375780274656,                 103P    139
0.029126213592233,0.,0.999375780274657,1.,0.,0.,1.,0.,0.,0.;         103P    140
508,4,0,49,11,0,1,0,97,0,49,6,0,1,0,99,0,49,9,1,1,0,101,0,49,10,     105P    141
1,1,0,103;                                                           105P    142
510,95,1,1,105;                                                      107P    143
128,1,1,1,1,0,0,1,0,0,0.,0.,1.,1.,0.,0.,1.,1.,1.,1.,1.,1.,           109P    144
-8.400000315000000E+001,-8.400000315000001E+001,                     109P    145
617.17104745042502,8.400000315000000E+001,                           109P    146
-8.400000315000001E+001,617.17104745042502,                          109P    147
-8.400000315000000E+001,8.400000315000001E+001,                      109P    148
617.17104745042502,8.400000315000000E+001,                           109P    149
8.400000315000001E+001,617.17104745042502,0.,1.,0.,1.;               109P    150
126,4,2,0,0,0,0,0.,0.,0.,0.5,0.5,1.,1.,1.,1.,0.707106781186548,      111P    151
1.,0.707106781186548,1.,0.023809541666666,0.5,0.,                    111P    152
0.023809541666666,0.023809541666666,0.,0.5,0.023809541666666,0.,     111P    153
0.976190458333334,0.023809541666666,0.,0.976190458333334,0.5,0.,     111P    154
0.,1.,0.,0.,0.;                                                      111P    155
126,4,2,0,0,0,0,0.,0.,0.,0.5,0.5,1.,1.,1.,1.,0.707106781186548,      113P    156
1.,0.707106781186548,1.,0.976190458333334,0.5,0.,                    113P    157
0.976190458333334,0.976190458333334,0.,0.5,0.976190458333334,0.,     113P    158
0.023809541666666,0.976190458333334,0.,0.023809541666666,0.5,0.,     113P    159
0.,1.,0.,0.,0.;                                                      113P    160
508,2,0,49,3,1,1,0,111,0,49,8,1,1,0,113;                             115P    161
126,4,2,0,0,0,0,0.,0.,0.,0.5,0.5,1.,1.,1.,1.,0.707106781186548,      117P    162
1.,0.707106781186548,1.,0.041666683854166,0.5,0.,                    117P    163
0.041666683854166,0.041666683854166,0.,0.5,0.041666683854166,0.,     117P    164
0.958333316145834,0.041666683854166,0.,0.958333316145834,0.5,0.,     117P    165
0.,1.,0.,0.,0.;                                                      117P    166
126,4,2,0,0,0,0,0.,0.,0.,0.5,0.5,1.,1.,1.,1.,0.707106781186548,      119P    167
1.,0.707106781186548,1.,0.958333316145834,0.5,0.,                    119P    168
0.958333316145834,0.958333316145834,0.,0.5,0.958333316145834,0.,     119P    169
0.041666683854166,0.958333316145834,0.,0.041666683854166,0.5,0.,     119P    170
0.,1.,0.,0.,0.;                                                      119P    171
508,2,0,49,10,0,1,0,117,0,49,12,0,1,0,119;                           121P    172
510,109,2,1,115,121;                                                 123P    173
128,1,4,1,2,0,0,0,0,0,0.,0.,1.,1.,0.,0.,0.,0.647249190938511,        125P    174
0.647249190938511,1.,1.,1.,1.,1.,0.5,0.5,1.,1.,0.7275,0.7275,        125P    175
0.752025,0.752025,77.,0.,-183.32895254957498,77.,0.,                 125P    176
617.67104745042502,77.,133.36791218280351,-183.32895254957498,       125P    177
77.,133.36791218280351,617.67104745042502,-38.499999999999986,       125P    178
66.683956091401782,-183.32895254957498,-38.499999999999986,          125P    179
66.683956091401782,617.67104745042502,-81.762886597938149,           125P    180
41.706116868161935,-183.32895254957501,-81.762886597938149,          125P    181
41.706116868161935,617.67104745042502,-76.585319636980145,           125P    182
-7.980527307238677,-183.32895254957492,-76.585319636980145,          125P    183
-7.980527307238677,617.67104745042502,0.,1.,0.,1.;                   125P    184
126,1,1,0,0,1,0,0.,0.,1.,1.,1.,1.,0.000624219725343,0.,0.,           127P    185
0.000624219725343,0.970873786407767,0.,0.,1.,0.,0.,0.;               127P    186
126,1,1,0,0,1,0,0.,0.,1.,1.,1.,1.,0.000624219725343,0.,0.,           129P    187
0.999375780274656,0.,0.,0.,1.,0.,0.,0.;                              129P    188
126,1,1,0,0,1,0,0.,0.,1.,1.,1.,1.,0.999375780274657,                 131P    189
5.004113626193152E-015,0.,0.999375780274657,0.970873786407767,       131P    190
0.,0.,1.,0.,0.,0.;                                                   131P    191
126,1,1,0,0,1,0,0.,0.,1.,1.,1.,1.,0.000624219725343,                 133P    192
0.970873786407767,0.,0.999375780274657,0.970873786407767,0.,0.,      133P    193
1.,0.,0.,0.;                                                         133P    194
508,4,0,49,7,0,1,0,127,0,49,11,1,1,0,129,0,49,12,1,1,0,131,0,49,     135P    195
9,0,1,0,133;                                                         135P    196
510,125,1,1,135;                                                     137P    197
514,6,63,1,79,1,93,1,107,1,123,1,137,1;                              139P    198
186,139,1,0;                                                         141P    199
308,0,43H0059.1187.0000_Wandhülse_DN-160-500mm-PP-45,1,141;          143P    200
124,1.,0.,0.,0.,0.,1.,0.,0.,0.,0.,1.,0.;                             145P    201
408,143,0.,0.919502918930716,-524.68014166718592,1.;                 147P    202
308,0,9HAssembly1,1,147;                                             149P    203
408,149,0.,0.,0.,1.;                                                 151P    204
S      1G      6D    152P    204                                        T      1
