                                                                        S      1
,,,5HZF-EC,31HAutoCAD 2018 - Deutsch (German),62HAutodesk Translation FrG      1
amework DWG producer (atf_dwg_producer),32,38,7,99,15,,1.,2,2HMM,1,0.08,G      2
15H20190802.085753,0.01,10000.,,7Hunknown,11,0,15H20190802.085720;      G      3
     408       1                                       5        00010001D      1
     408       0               1       0                               0D      2
     408       2                                                00000001D      3
     408       0               1       0                               0D      4
     124       3                                                00000000D      5
     124                       1       0                               0D      6
     308       4                                                00010200D      7
     308       0               1       0                               0D      8
     308       5                                                00010200D      9
     308       0               1       0                               0D     10
     186       6                       0                        00010000D     11
     186             -93       1       0                               0D     12
     514       7                                                00010000D     13
     514                       1       1                               0D     14
     510       8                                                00010000D     15
     510             -93       1       1                               0D     16
     510       9                                                00010000D     17
     510             -93       1       1                               0D     18
     510      10                                                00010000D     19
     510             -93       1       1                               0D     20
     510      11                                                00010000D     21
     510             -93       1       1                               0D     22
     510      12                                                00010000D     23
     510             -93       1       1                               0D     24
     510      13                                                00010000D     25
     510             -93       1       1                               0D     26
     508      14                                                00010000D     27
     508                       1       1                               0D     28
     508      15                                                00010000D     29
     508                       1       1                               0D     30
     508      16                                                00010000D     31
     508                       1       1                               0D     32
     508      17                                                00010000D     33
     508                       1       1                               0D     34
     508      18                                                00010000D     35
     508                       1       1                               0D     36
     508      19                                                00010000D     37
     508                       1       1                               0D     38
     508      20                                                00010000D     39
     508                       1       1                               0D     40
     508      21                                                00010000D     41
     508                       1       1                               0D     42
     126      22                                                00010000D     43
     126       0               7       0                               0D     44
     126      29                                                00010000D     45
     126       0               3       0                               0D     46
     126      32                                                00010000D     47
     126       0               7       0                               0D     48
     126      39                                                00010000D     49
     126       0               2       0                               0D     50
     126      41                                                00010000D     51
     126       0               7       0                               0D     52
     126      48                                                00010000D     53
     126       0               7       0                               0D     54
     126      55                                                00010000D     55
     126       0               7       0                               0D     56
     126      62                                                00010000D     57
     126       0               7       0                               0D     58
     126      69                                                00010000D     59
     126       0               7       0                               0D     60
     126      76                                                00010000D     61
     126       0               4       0                               0D     62
     126      80                                                00010000D     63
     126       0               3       0                               0D     64
     126      83                                                00010000D     65
     126       0               7       0                               0D     66
     128      90                                                00010000D     67
     128       0     -93      10       0                               0D     68
     128     100                                                00010000D     69
     128       0     -93      10       0                               0D     70
     128     110                                                00010000D     71
     128       0     -93       6       0                               0D     72
     128     116                                                00010000D     73
     128       0     -93      10       0                               0D     74
     128     126                                                00010000D     75
     128       0     -93      10       0                               0D     76
     128     136                                                00010000D     77
     128       0     -93       6       0                               0D     78
     502     142                                                00010000D     79
     502                       5       1                               0D     80
     504     147                                                00010001D     81
     504                       3       1                               0D     82
     406     150                                                00000000D     83
     406                       1      15                               0D     84
     406     151                                                00000000D     85
     406                       1      15                               0D     86
     406     152                                                00000000D     87
     406                       1      15                               0D     88
     406     153                       0                        00000000D     89
     406                       1       3                               0D     90
     314     154                                                00000200D     91
     314                       1       0                               0D     92
     314     155                                                00000200D     93
     314                       1       0                               0D     94
408,7,0.,0.,0.,1.,0,1,85;                                              1P      1
408,9,0.,0.,0.,1.,0,1,87;                                              3P      2
124,1.,0.,0.,0.,0.,1.,0.,0.,0.,0.,1.,-10.;                             5P      3
308,0,19HFilter_Y3506000007K,1,11;                                     7P      4
308,1,25HFilter_Y3506000007K$1$ATF,1,1;                                9P      5
186,13,1,0,0,1,83;                                                    11P      6
514,6,15,1,17,1,19,1,21,1,23,1,25,1;                                  13P      7
510,67,1,1,27;                                                        15P      8
510,69,1,1,29;                                                        17P      9
510,71,2,1,31,33;                                                     19P     10
510,73,1,1,35;                                                        21P     11
510,75,1,1,37;                                                        23P     12
510,77,2,1,39,41;                                                     25P     13
508,4,0,81,1,0,0,0,81,2,0,0,0,81,3,1,0,0,81,4,1,0;                    27P     14
508,4,0,81,4,0,0,0,81,5,1,0,0,81,2,1,0,0,81,6,0,0;                    29P     15
508,2,0,81,1,1,0,0,81,6,1,0;                                          31P     16
508,2,0,81,7,0,0,0,81,8,0,0;                                          33P     17
508,4,0,81,9,0,0,0,81,10,1,0,0,81,7,1,0,0,81,11,0,0;                  35P     18
508,4,0,81,11,1,0,0,81,8,1,0,0,81,10,0,0,0,81,12,0,0;                 37P     19
508,2,0,81,3,0,0,0,81,5,0,0;                                          39P     20
508,2,0,81,9,1,0,0,81,12,1,0;                                         41P     21
126,4,2,0,0,0,0,-3.14159265358979,-3.14159265358979,                  43P     22
-3.14159265358979,-1.5707963267949,-1.5707963267949,0.,0.,0.,1.,      43P     23
0.707106781186548,1.,0.707106781186548,1.,-78.,                       43P     24
-9.55224503334936D-15,18.9999999999471,-78.,-78.,                     43P     25
18.9999999999471,4.77612251667468D-15,-78.,18.9999999999471,78.,      43P     26
-78.,18.9999999999471,78.,0.,18.9999999999471,-3.14159265358979,      43P     27
0.,0.,0.,0.;                                                          43P     28
126,1,1,0,0,1,0,0.,0.,8.,8.,1.,1.,-78.,9.55224503334936D-15,          45P     29
10.9999999999471,-78.,9.55224503334936D-15,18.9999999999471,0.,       45P     30
8.,0.,0.,0.;                                                          45P     31
126,4,2,0,0,0,0,-3.14159265358979,-3.14159265358979,                  47P     32
-3.14159265358979,-1.5707963267949,-1.5707963267949,0.,0.,0.,1.,      47P     33
0.707106781186548,1.,0.707106781186548,1.,-78.,                       47P     34
-9.55224503334936D-15,10.9999999999471,-78.,-78.,                     47P     35
10.9999999999471,4.77612251667468D-15,-78.,10.9999999999471,78.,      47P     36
-78.,10.9999999999471,78.,0.,10.9999999999471,-3.14159265358979,      47P     37
0.,0.,0.,0.;                                                          47P     38
126,1,1,0,0,1,0,0.,0.,8.,8.,1.,1.,78.,0.,10.9999999999471,78.,        49P     39
0.,18.9999999999471,0.,8.,0.,0.,0.;                                   49P     40
126,4,2,0,0,0,0,0.,0.,0.,1.5707963267949,1.5707963267949,             51P     41
3.14159265358979,3.14159265358979,3.14159265358979,1.,                51P     42
0.707106781186548,1.,0.707106781186548,1.,78.,0.,                     51P     43
10.9999999999471,78.,78.,10.9999999999471,4.77612251667468D-15,       51P     44
78.,10.9999999999471,-78.,78.,10.9999999999471,-78.,                  51P     45
9.55224503334936D-15,10.9999999999471,0.,3.14159265358979,0.,0.,      51P     46
0.;                                                                   51P     47
126,4,2,0,0,0,0,0.,0.,0.,1.5707963267949,1.5707963267949,             53P     48
3.14159265358979,3.14159265358979,3.14159265358979,1.,                53P     49
0.707106781186548,1.,0.707106781186548,1.,78.,0.,                     53P     50
18.9999999999471,78.,78.,18.9999999999471,4.77612251667468D-15,       53P     51
78.,18.9999999999471,-78.,78.,18.9999999999471,-78.,                  53P     52
9.55224503334936D-15,18.9999999999471,0.,3.14159265358979,0.,0.,      53P     53
0.;                                                                   53P     54
126,4,2,0,0,0,0,-3.14159265358979,-3.14159265358979,                  55P     55
-3.14159265358979,-1.5707963267949,-1.5707963267949,0.,0.,0.,1.,      55P     56
0.707106781186548,1.,0.707106781186548,1.,-10.,                       55P     57
-1.22464679914735D-15,18.9999999999471,-10.,-10.,                     55P     58
18.9999999999471,6.12323399573677D-16,-10.,18.9999999999471,10.,      55P     59
-10.,18.9999999999471,10.,0.,18.9999999999471,-3.14159265358979,      55P     60
0.,0.,0.,0.;                                                          55P     61
126,4,2,0,0,0,0,0.,0.,0.,1.5707963267949,1.5707963267949,             57P     62
3.14159265358979,3.14159265358979,3.14159265358979,1.,                57P     63
0.707106781186548,1.,0.707106781186548,1.,10.,0.,                     57P     64
18.9999999999471,10.,10.,18.9999999999471,6.12323399573677D-16,       57P     65
10.,18.9999999999471,-10.,10.,18.9999999999471,-10.,                  57P     66
1.22464679914735D-15,18.9999999999471,0.,3.14159265358979,0.,0.,      57P     67
0.;                                                                   57P     68
126,4,2,0,0,0,0,-3.14159265358979,-3.14159265358979,                  59P     69
-3.14159265358979,-1.5707963267949,-1.5707963267949,0.,0.,0.,1.,      59P     70
0.707106781186548,1.,0.707106781186548,1.,-10.,                       59P     71
-1.22464679914735D-15,10.9999999999471,-10.,-10.,                     59P     72
10.9999999999471,6.12323399573677D-16,-10.,10.9999999999471,10.,      59P     73
-10.,10.9999999999471,10.,0.,10.9999999999471,-3.14159265358979,      59P     74
0.,0.,0.,0.;                                                          59P     75
126,1,1,0,0,1,0,0.800002400000002,0.800002400000002,8.8000024,        61P     76
8.8000024,1.,1.,-10.,1.22464679914735D-15,10.9999999999471,-10.,      61P     77
1.22464679914735D-15,18.9999999999471,0.800002400000002,              61P     78
8.8000024,0.,0.,0.;                                                   61P     79
126,1,1,0,0,1,0,0.800002400000002,0.800002400000002,8.8000024,        63P     80
8.8000024,1.,1.,10.,0.,10.9999999999471,10.,0.,18.9999999999471,      63P     81
0.800002400000002,8.8000024,0.,0.,0.;                                 63P     82
126,4,2,0,0,0,0,0.,0.,0.,1.5707963267949,1.5707963267949,             65P     83
3.14159265358979,3.14159265358979,3.14159265358979,1.,                65P     84
0.707106781186548,1.,0.707106781186548,1.,10.,0.,                     65P     85
10.9999999999471,10.,10.,10.9999999999471,6.12323399573677D-16,       65P     86
10.,10.9999999999471,-10.,10.,10.9999999999471,-10.,                  65P     87
1.22464679914735D-15,10.9999999999471,0.,3.14159265358979,0.,0.,      65P     88
0.;                                                                   65P     89
128,1,4,1,2,0,0,0,0,0,0.,0.,0.102564102564103,0.102564102564103,      67P     90
-3.14159265358979,-3.14159265358979,-3.14159265358979,                67P     91
-1.5707963267949,-1.5707963267949,0.,0.,0.,1.,1.,                     67P     92
0.707106781186548,0.707106781186548,1.,1.,0.707106781186548,          67P     93
0.707106781186548,1.,1.,-78.,0.,18.9999999999471,-78.,0.,             67P     94
10.9999999999471,-78.,-78.,18.9999999999471,-78.,-78.,                67P     95
10.9999999999471,0.,-78.,18.9999999999471,0.,-78.,                    67P     96
10.9999999999471,78.,-78.,18.9999999999471,78.,-78.,                  67P     97
10.9999999999471,78.,0.,18.9999999999471,78.,0.,                      67P     98
10.9999999999471,0.,0.102564102564103,-3.14159265358979,0.;           67P     99
128,1,4,1,2,0,0,0,0,0,0.,0.,0.102564102564103,0.102564102564103,      69P    100
0.,0.,0.,1.5707963267949,1.5707963267949,3.14159265358979,            69P    101
3.14159265358979,3.14159265358979,1.,1.,0.707106781186548,            69P    102
0.707106781186548,1.,1.,0.707106781186548,0.707106781186548,1.,       69P    103
1.,78.,0.,18.9999999999471,78.,0.,10.9999999999471,78.,78.,           69P    104
18.9999999999471,78.,78.,10.9999999999471,0.,78.,                     69P    105
18.9999999999471,0.,78.,10.9999999999471,-78.,78.,                    69P    106
18.9999999999471,-78.,78.,10.9999999999471,-78.,0.,                   69P    107
18.9999999999471,-78.,0.,10.9999999999471,0.,0.102564102564103,       69P    108
0.,3.14159265358979;                                                  69P    109
128,1,1,1,1,0,0,1,0,0,-78.001,-78.001,78.001,78.001,                  71P    110
-83.1778143920616,-83.1778143920616,72.8241856079384,                 71P    111
72.8241856079384,1.,1.,1.,1.,-78.001,-78.001,18.9999999999471,        71P    112
78.001,-78.001,18.9999999999471,-78.001,78.001,18.9999999999471,      71P    113
78.001,78.001,18.9999999999471,-78.001,78.001,-83.1778143920616,      71P    114
72.8241856079384;                                                     71P    115
128,1,4,1,2,0,0,0,0,0,0.08000024,0.08000024,0.88000024,               73P    116
0.88000024,-3.14159265358979,-3.14159265358979,                       73P    117
-3.14159265358979,-1.5707963267949,-1.5707963267949,0.,0.,0.,1.,      73P    118
1.,0.707106781186548,0.707106781186548,1.,1.,0.707106781186548,       73P    119
0.707106781186548,1.,1.,-10.,0.,10.9999999999471,-10.,0.,             73P    120
18.9999999999471,-10.,-10.,10.9999999999471,-10.,-10.,                73P    121
18.9999999999471,0.,-10.,10.9999999999471,0.,-10.,                    73P    122
18.9999999999471,10.,-10.,10.9999999999471,10.,-10.,                  73P    123
18.9999999999471,10.,0.,10.9999999999471,10.,0.,                      73P    124
18.9999999999471,0.08000024,0.88000024,-3.14159265358979,0.;          73P    125
128,1,4,1,2,0,0,0,0,0,0.08000024,0.08000024,0.88000024,               75P    126
0.88000024,0.,0.,0.,1.5707963267949,1.5707963267949,                  75P    127
3.14159265358979,3.14159265358979,3.14159265358979,1.,1.,             75P    128
0.707106781186548,0.707106781186548,1.,1.,0.707106781186548,          75P    129
0.707106781186548,1.,1.,10.,0.,10.9999999999471,10.,0.,               75P    130
18.9999999999471,10.,10.,10.9999999999471,10.,10.,                    75P    131
18.9999999999471,0.,10.,10.9999999999471,0.,10.,                      75P    132
18.9999999999471,-10.,10.,10.9999999999471,-10.,10.,                  75P    133
18.9999999999471,-10.,0.,10.9999999999471,-10.,0.,                    75P    134
18.9999999999471,0.08000024,0.88000024,0.,3.14159265358979;           75P    135
128,1,1,1,1,0,0,1,0,0,-78.001,-78.001,78.001,78.001,                  77P    136
-83.1778143920616,-83.1778143920616,72.8241856079384,                 77P    137
72.8241856079384,1.,1.,1.,1.,78.001,-78.001,10.9999999999471,         77P    138
-78.001,-78.001,10.9999999999471,78.001,78.001,10.9999999999471,      77P    139
-78.001,78.001,10.9999999999471,-78.001,78.001,                       77P    140
-83.1778143920616,72.8241856079384;                                   77P    141
502,8,-78.,9.55224503334936D-15,18.9999999999471,78.,0.,              79P    142
18.9999999999471,-78.,9.55224503334936D-15,10.9999999999471,78.,      79P    143
0.,10.9999999999471,-10.,1.22464679914735D-15,18.9999999999471,       79P    144
10.,0.,18.9999999999471,-10.,1.22464679914735D-15,                    79P    145
10.9999999999471,10.,0.,10.9999999999471;                             79P    146
504,12,43,79,1,79,2,45,79,3,79,1,47,79,3,79,4,49,79,4,79,2,51,        81P    147
79,4,79,3,53,79,2,79,1,55,79,5,79,6,57,79,6,79,5,59,79,7,79,8,        81P    148
61,79,7,79,5,63,79,8,79,6,65,79,8,79,7;                               81P    149
406,1,2H5E;                                                           83P    150
406,1,2H5B;                                                           85P    151
406,1,2H58;                                                           87P    152
406,2,0,1H0;                                                          89P    153
314,100.,100.,100.,;                                                  91P    154
314,60.,60.,60.,;                                                     93P    155
S      1G      3D     94P    155                                        T      1
