ISO-10303-21;
HEADER;
FILE_DESCRIPTION (( 'STEP AP214' ),
    '1' );
FILE_NAME ('BI 160.STEP',
    '2009-07-15T21:29:10',
    ( 'Wolfgang Schmidt' ),
    ( 'WS-KO' ),
    'SwSTEP 2.0',
    'SolidWorks 2008',
    '' );
FILE_SCHEMA (( 'AUTOMOTIVE_DESIGN' ));
ENDSEC;

DATA;
#1 =( GEOMETRIC_REPRESENTATION_CONTEXT ( 3 ) GLOBAL_UNCERTAINTY_ASSIGNED_CONTEXT ( ( #153 ) ) GLOBAL_UNIT_ASSIGNED_CONTEXT ( ( #129, #155, #154 ) ) REPRESENTATION_CONTEXT ( 'NONE', 'WORKASPACE' ) );
#2 = ADVANCED_BREP_SHAPE_REPRESENTATION ( 'BI 160', ( #130, #190 ), #1 ) ;
#3 = DIRECTION ( 'NONE',  ( 0.0000000000000000000, 0.0000000000000000000, -1.000000000000000000 ) ) ;
#4 = DIRECTION ( 'NONE',  ( -0.0000000000000000000, -1.000000000000000000, -0.0000000000000000000 ) ) ;
#5 = CARTESIAN_POINT ( 'NONE',  ( 0.0000000000000000000, 1000.000000000000000, 0.0000000000000000000 ) ) ;
#6 = AXIS2_PLACEMENT_3D ( 'NONE', #5, #4, #3 ) ;
#7 = CARTESIAN_POINT ( 'NONE',  ( 0.0000000000000000000, 1000.000000000000000, -80.00000000000000000 ) ) ;
#8 = CYLINDRICAL_SURFACE ( 'NONE', #6, 20.00000000000000000 ) ;
#9 = DIRECTION ( 'NONE',  ( 0.0000000000000000000, 0.0000000000000000000, -1.000000000000000000 ) ) ;
#10 = DIRECTION ( 'NONE',  ( -0.0000000000000000000, -1.000000000000000000, -0.0000000000000000000 ) ) ;
#11 = CARTESIAN_POINT ( 'NONE',  ( 0.0000000000000000000, 1000.000000000000000, 0.0000000000000000000 ) ) ;
#12 = AXIS2_PLACEMENT_3D ( 'NONE', #11, #10, #9 ) ;
#13 = FACE_OUTER_BOUND ( 'NONE', #32, .T. ) ;
#14 = CYLINDRICAL_SURFACE ( 'NONE', #12, 80.00000000000000000 ) ;
#15 = DIRECTION ( 'NONE',  ( 0.0000000000000000000, 0.0000000000000000000, -1.000000000000000000 ) ) ;
#16 = DIRECTION ( 'NONE',  ( -0.0000000000000000000, -1.000000000000000000, -0.0000000000000000000 ) ) ;
#17 = AXIS2_PLACEMENT_3D ( 'NONE', #20, #16, #15 ) ;
#18 = CYLINDRICAL_SURFACE ( 'NONE', #17, 20.00000000000000000 ) ;
#19 = FACE_OUTER_BOUND ( 'NONE', #135, .T. ) ;
#20 = CARTESIAN_POINT ( 'NONE',  ( 0.0000000000000000000, 1000.000000000000000, 0.0000000000000000000 ) ) ;
#21 = FACE_OUTER_BOUND ( 'NONE', #132, .T. ) ;
#22 =( GEOMETRIC_REPRESENTATION_CONTEXT ( 3 ) GLOBAL_UNCERTAINTY_ASSIGNED_CONTEXT ( ( #112 ) ) GLOBAL_UNIT_ASSIGNED_CONTEXT ( ( #115, #114, #113 ) ) REPRESENTATION_CONTEXT ( 'NONE', 'WORKASPACE' ) );
#23 = CIRCLE ( 'NONE', #69, 80.00000000000000000 ) ;
#24 = DIRECTION ( 'NONE',  ( 0.0000000000000000000, 0.0000000000000000000, -1.000000000000000000 ) ) ;
#25 = DIRECTION ( 'NONE',  ( -0.0000000000000000000, -1.000000000000000000, -0.0000000000000000000 ) ) ;
#26 = CARTESIAN_POINT ( 'NONE',  ( 0.0000000000000000000, 1000.000000000000000, 0.0000000000000000000 ) ) ;
#27 = AXIS2_PLACEMENT_3D ( 'NONE', #26, #25, #24 ) ;
#28 = CYLINDRICAL_SURFACE ( 'NONE', #27, 80.00000000000000000 ) ;
#29 = FACE_OUTER_BOUND ( 'NONE', #138, .T. ) ;
#30 = DIRECTION ( 'NONE',  ( 0.0000000000000000000, 0.0000000000000000000, 1.000000000000000000 ) ) ;
#31 = DIRECTION ( 'NONE',  ( 0.0000000000000000000, 1.000000000000000000, 0.0000000000000000000 ) ) ;
#32 = EDGE_LOOP ( 'NONE', ( #33, #37, #38, #39 ) ) ;
#33 = ORIENTED_EDGE ( 'NONE', *, *, #152, .F. ) ;
#34 = EDGE_CURVE ( 'NONE', #106, #109, #88, .T. ) ;
#35 = ORIENTED_EDGE ( 'NONE', *, *, #98, .T. ) ;
#36 = ORIENTED_EDGE ( 'NONE', *, *, #142, .F. ) ;
#37 = ORIENTED_EDGE ( 'NONE', *, *, #90, .T. ) ;
#38 = ORIENTED_EDGE ( 'NONE', *, *, #108, .T. ) ;
#39 = ORIENTED_EDGE ( 'NONE', *, *, #34, .F. ) ;
#40 = ORIENTED_EDGE ( 'NONE', *, *, #102, .F. ) ;
#41 = ORIENTED_EDGE ( 'NONE', *, *, #44, .T. ) ;
#42 = ORIENTED_EDGE ( 'NONE', *, *, #148, .T. ) ;
#43 = ORIENTED_EDGE ( 'NONE', *, *, #96, .F. ) ;
#44 = EDGE_CURVE ( 'NONE', #145, #143, #82, .T. ) ;
#45 = EDGE_LOOP ( 'NONE', ( #91, #43 ) ) ;
#46 = ADVANCED_FACE ( 'NONE', ( #83, #78 ), #77, .F. ) ;
#47 = CARTESIAN_POINT ( 'NONE',  ( 0.0000000000000000000, 1000.000000000000000, -20.00000000000000000 ) ) ;
#48 = LINE ( 'NONE', #47, #128 ) ;
#49 = CARTESIAN_POINT ( 'NONE',  ( 2.449212707644754500E-015, 0.0000000000000000000, 20.00000000000000000 ) ) ;
#50 = DIRECTION ( 'NONE',  ( 0.0000000000000000000, 0.0000000000000000000, 1.000000000000000000 ) ) ;
#51 = DIRECTION ( 'NONE',  ( 0.0000000000000000000, 1.000000000000000000, 0.0000000000000000000 ) ) ;
#52 = AXIS2_PLACEMENT_3D ( 'NONE', #57, #51, #50 ) ;
#53 = CIRCLE ( 'NONE', #52, 80.00000000000000000 ) ;
#54 = DIRECTION ( 'NONE',  ( 0.0000000000000000000, -0.0000000000000000000, 1.000000000000000000 ) ) ;
#55 = DIRECTION ( 'NONE',  ( 0.0000000000000000000, 1.000000000000000000, 0.0000000000000000000 ) ) ;
#56 = AXIS2_PLACEMENT_3D ( 'NONE', #58, #55, #54 ) ;
#57 = CARTESIAN_POINT ( 'NONE',  ( 0.0000000000000000000, 1000.000000000000000, 0.0000000000000000000 ) ) ;
#58 = CARTESIAN_POINT ( 'NONE',  ( 0.0000000000000000000, 1000.000000000000000, 0.0000000000000000000 ) ) ;
#59 = PLANE ( 'NONE',  #56 ) ;
#60 = FACE_BOUND ( 'NONE', #104, .T. ) ;
#61 = FACE_OUTER_BOUND ( 'NONE', #100, .T. ) ;
#62 = DIRECTION ( 'NONE',  ( -0.0000000000000000000, -1.000000000000000000, -0.0000000000000000000 ) ) ;
#63 = VECTOR ( 'NONE', #62, 1000.000000000000000 ) ;
#64 = CARTESIAN_POINT ( 'NONE',  ( 0.0000000000000000000, 1000.000000000000000, -80.00000000000000000 ) ) ;
#65 = LINE ( 'NONE', #64, #63 ) ;
#66 = DIRECTION ( 'NONE',  ( 0.0000000000000000000, 0.0000000000000000000, 1.000000000000000000 ) ) ;
#67 = DIRECTION ( 'NONE',  ( 0.0000000000000000000, 1.000000000000000000, 0.0000000000000000000 ) ) ;
#68 = CARTESIAN_POINT ( 'NONE',  ( 0.0000000000000000000, 0.0000000000000000000, 0.0000000000000000000 ) ) ;
#69 = AXIS2_PLACEMENT_3D ( 'NONE', #68, #67, #66 ) ;
#70 = CARTESIAN_POINT ( 'NONE',  ( 0.0000000000000000000, 1000.000000000000000, 0.0000000000000000000 ) ) ;
#71 = AXIS2_PLACEMENT_3D ( 'NONE', #70, #31, #30 ) ;
#72 = DIRECTION ( 'NONE',  ( 0.0000000000000000000, -0.0000000000000000000, 1.000000000000000000 ) ) ;
#73 = DIRECTION ( 'NONE',  ( 0.0000000000000000000, 1.000000000000000000, 0.0000000000000000000 ) ) ;
#74 = CARTESIAN_POINT ( 'NONE',  ( 0.0000000000000000000, 0.0000000000000000000, 0.0000000000000000000 ) ) ;
#75 = AXIS2_PLACEMENT_3D ( 'NONE', #74, #73, #72 ) ;
#76 = CIRCLE ( 'NONE', #71, 20.00000000000000000 ) ;
#77 = PLANE ( 'NONE',  #75 ) ;
#78 = FACE_BOUND ( 'NONE', #111, .T. ) ;
#79 = DIRECTION ( 'NONE',  ( 0.0000000000000000000, 0.0000000000000000000, 1.000000000000000000 ) ) ;
#80 = DIRECTION ( 'NONE',  ( 0.0000000000000000000, 1.000000000000000000, 0.0000000000000000000 ) ) ;
#81 = AXIS2_PLACEMENT_3D ( 'NONE', #89, #80, #79 ) ;
#82 = CIRCLE ( 'NONE', #81, 80.00000000000000000 ) ;
#83 = FACE_OUTER_BOUND ( 'NONE', #45, .T. ) ;
#84 = DIRECTION ( 'NONE',  ( 0.0000000000000000000, 0.0000000000000000000, 1.000000000000000000 ) ) ;
#85 = DIRECTION ( 'NONE',  ( 0.0000000000000000000, 1.000000000000000000, 0.0000000000000000000 ) ) ;
#86 = CARTESIAN_POINT ( 'NONE',  ( 0.0000000000000000000, 0.0000000000000000000, 0.0000000000000000000 ) ) ;
#87 = AXIS2_PLACEMENT_3D ( 'NONE', #86, #85, #84 ) ;
#88 = CIRCLE ( 'NONE', #87, 20.00000000000000000 ) ;
#89 = CARTESIAN_POINT ( 'NONE',  ( 0.0000000000000000000, 0.0000000000000000000, 0.0000000000000000000 ) ) ;
#90 = EDGE_CURVE ( 'NONE', #151, #150, #76, .T. ) ;
#91 = ORIENTED_EDGE ( 'NONE', *, *, #44, .F. ) ;
#92 = ORIENTED_EDGE ( 'NONE', *, *, #146, .F. ) ;
#93 = ORIENTED_EDGE ( 'NONE', *, *, #90, .F. ) ;
#94 = ORIENTED_EDGE ( 'NONE', *, *, #142, .T. ) ;
#95 = ADVANCED_FACE ( 'NONE', ( #29 ), #28, .T. ) ;
#96 = EDGE_CURVE ( 'NONE', #143, #145, #23, .T. ) ;
#97 = ORIENTED_EDGE ( 'NONE', *, *, #98, .F. ) ;
#98 = EDGE_CURVE ( 'NONE', #139, #145, #65, .T. ) ;
#99 = ADVANCED_FACE ( 'NONE', ( #61, #60 ), #59, .T. ) ;
#100 = EDGE_LOOP ( 'NONE', ( #101, #103 ) ) ;
#101 = ORIENTED_EDGE ( 'NONE', *, *, #102, .T. ) ;
#102 = EDGE_CURVE ( 'NONE', #139, #141, #53, .T. ) ;
#103 = ORIENTED_EDGE ( 'NONE', *, *, #140, .T. ) ;
#104 = EDGE_LOOP ( 'NONE', ( #92, #93 ) ) ;
#105 = ORIENTED_EDGE ( 'NONE', *, *, #140, .F. ) ;
#106 = VERTEX_POINT ( 'NONE', #49 ) ;
#107 = ORIENTED_EDGE ( 'NONE', *, *, #108, .F. ) ;
#108 = EDGE_CURVE ( 'NONE', #150, #109, #48, .T. ) ;
#109 = VERTEX_POINT ( 'NONE', #126 ) ;
#110 = ORIENTED_EDGE ( 'NONE', *, *, #146, .T. ) ;
#111 = EDGE_LOOP ( 'NONE', ( #42, #136 ) ) ;
#112 = UNCERTAINTY_MEASURE_WITH_UNIT (LENGTH_MEASURE( 1.000000000000000100E-005 ), #115, 'distance_accuracy_value', 'NONE');
#113 =( NAMED_UNIT ( * ) SI_UNIT ( $, .STERADIAN. ) SOLID_ANGLE_UNIT ( ) );
#114 =( NAMED_UNIT ( * ) PLANE_ANGLE_UNIT ( ) SI_UNIT ( $, .RADIAN. ) );
#115 =( LENGTH_UNIT ( ) NAMED_UNIT ( * ) SI_UNIT ( .MILLI., .METRE. ) );
#116 = MECHANICAL_DESIGN_GEOMETRIC_PRESENTATION_REPRESENTATION (  '', ( #118 ), #22 ) ;
#117 = PRESENTATION_LAYER_ASSIGNMENT (  '', '', ( #118 ) ) ;
#118 = STYLED_ITEM ( 'NONE', ( #119 ), #130 ) ;
#119 = PRESENTATION_STYLE_ASSIGNMENT (( #120 ) ) ;
#120 = SURFACE_STYLE_USAGE ( .BOTH. , #121 ) ;
#121 = SURFACE_SIDE_STYLE ('',( #122 ) ) ;
#122 = SURFACE_STYLE_FILL_AREA ( #123 ) ;
#123 = FILL_AREA_STYLE ('',( #124 ) ) ;
#124 = FILL_AREA_STYLE_COLOUR ( '', #125 ) ;
#125 = COLOUR_RGB ( '',1.000000000000000000, 1.000000000000000000, 1.000000000000000000 ) ;
#126 = CARTESIAN_POINT ( 'NONE',  ( 0.0000000000000000000, 0.0000000000000000000, -20.00000000000000000 ) ) ;
#127 = DIRECTION ( 'NONE',  ( -0.0000000000000000000, -1.000000000000000000, -0.0000000000000000000 ) ) ;
#128 = VECTOR ( 'NONE', #127, 1000.000000000000000 ) ;
#129 =( LENGTH_UNIT ( ) NAMED_UNIT ( * ) SI_UNIT ( .MILLI., .METRE. ) );
#130 = MANIFOLD_SOLID_BREP ( 'NONE', #134 ) ;
#131 = ADVANCED_FACE ( 'NONE', ( #21 ), #18, .F. ) ;
#132 = EDGE_LOOP ( 'NONE', ( #110, #147, #149, #107 ) ) ;
#133 = ADVANCED_FACE ( 'NONE', ( #19 ), #14, .T. ) ;
#134 = CLOSED_SHELL ( 'NONE', ( #131, #95, #99, #46, #133, #137 ) ) ;
#135 = EDGE_LOOP ( 'NONE', ( #36, #40, #35, #41 ) ) ;
#136 = ORIENTED_EDGE ( 'NONE', *, *, #34, .T. ) ;
#137 = ADVANCED_FACE ( 'NONE', ( #13 ), #8, .F. ) ;
#138 = EDGE_LOOP ( 'NONE', ( #105, #94, #144, #97 ) ) ;
#139 = VERTEX_POINT ( 'NONE', #7 ) ;
#140 = EDGE_CURVE ( 'NONE', #141, #139, #183, .T. ) ;
#141 = VERTEX_POINT ( 'NONE', #178 ) ;
#142 = EDGE_CURVE ( 'NONE', #141, #143, #177, .T. ) ;
#143 = VERTEX_POINT ( 'NONE', #173 ) ;
#144 = ORIENTED_EDGE ( 'NONE', *, *, #96, .T. ) ;
#145 = VERTEX_POINT ( 'NONE', #172 ) ;
#146 = EDGE_CURVE ( 'NONE', #150, #151, #171, .T. ) ;
#147 = ORIENTED_EDGE ( 'NONE', *, *, #152, .T. ) ;
#148 = EDGE_CURVE ( 'NONE', #109, #106, #166, .T. ) ;
#149 = ORIENTED_EDGE ( 'NONE', *, *, #148, .F. ) ;
#150 = VERTEX_POINT ( 'NONE', #161 ) ;
#151 = VERTEX_POINT ( 'NONE', #160 ) ;
#152 = EDGE_CURVE ( 'NONE', #151, #106, #159, .T. ) ;
#153 = UNCERTAINTY_MEASURE_WITH_UNIT (LENGTH_MEASURE( 1.000000000000000100E-005 ), #129, 'distance_accuracy_value', 'NONE');
#154 =( NAMED_UNIT ( * ) SI_UNIT ( $, .STERADIAN. ) SOLID_ANGLE_UNIT ( ) );
#155 =( NAMED_UNIT ( * ) PLANE_ANGLE_UNIT ( ) SI_UNIT ( $, .RADIAN. ) );
#156 = DIRECTION ( 'NONE',  ( -0.0000000000000000000, -1.000000000000000000, -0.0000000000000000000 ) ) ;
#157 = VECTOR ( 'NONE', #156, 1000.000000000000000 ) ;
#158 = CARTESIAN_POINT ( 'NONE',  ( 2.449212707644754500E-015, 1000.000000000000000, 20.00000000000000000 ) ) ;
#159 = LINE ( 'NONE', #158, #157 ) ;
#160 = CARTESIAN_POINT ( 'NONE',  ( 2.449212707644754500E-015, 1000.000000000000000, 20.00000000000000000 ) ) ;
#161 = CARTESIAN_POINT ( 'NONE',  ( 0.0000000000000000000, 1000.000000000000000, -20.00000000000000000 ) ) ;
#162 = DIRECTION ( 'NONE',  ( 0.0000000000000000000, 0.0000000000000000000, 1.000000000000000000 ) ) ;
#163 = DIRECTION ( 'NONE',  ( 0.0000000000000000000, 1.000000000000000000, 0.0000000000000000000 ) ) ;
#164 = CARTESIAN_POINT ( 'NONE',  ( 0.0000000000000000000, 0.0000000000000000000, 0.0000000000000000000 ) ) ;
#165 = AXIS2_PLACEMENT_3D ( 'NONE', #164, #163, #162 ) ;
#166 = CIRCLE ( 'NONE', #165, 20.00000000000000000 ) ;
#167 = DIRECTION ( 'NONE',  ( 0.0000000000000000000, 0.0000000000000000000, 1.000000000000000000 ) ) ;
#168 = DIRECTION ( 'NONE',  ( 0.0000000000000000000, 1.000000000000000000, 0.0000000000000000000 ) ) ;
#169 = CARTESIAN_POINT ( 'NONE',  ( 0.0000000000000000000, 1000.000000000000000, 0.0000000000000000000 ) ) ;
#170 = AXIS2_PLACEMENT_3D ( 'NONE', #169, #168, #167 ) ;
#171 = CIRCLE ( 'NONE', #170, 20.00000000000000000 ) ;
#172 = CARTESIAN_POINT ( 'NONE',  ( 0.0000000000000000000, 0.0000000000000000000, -80.00000000000000000 ) ) ;
#173 = CARTESIAN_POINT ( 'NONE',  ( 9.796850830579018100E-015, 0.0000000000000000000, 80.00000000000000000 ) ) ;
#174 = DIRECTION ( 'NONE',  ( -0.0000000000000000000, -1.000000000000000000, -0.0000000000000000000 ) ) ;
#175 = VECTOR ( 'NONE', #174, 1000.000000000000000 ) ;
#176 = CARTESIAN_POINT ( 'NONE',  ( 9.796850830579018100E-015, 1000.000000000000000, 80.00000000000000000 ) ) ;
#177 = LINE ( 'NONE', #176, #175 ) ;
#178 = CARTESIAN_POINT ( 'NONE',  ( 9.796850830579018100E-015, 1000.000000000000000, 80.00000000000000000 ) ) ;
#179 = DIRECTION ( 'NONE',  ( 0.0000000000000000000, 0.0000000000000000000, 1.000000000000000000 ) ) ;
#180 = DIRECTION ( 'NONE',  ( 0.0000000000000000000, 1.000000000000000000, 0.0000000000000000000 ) ) ;
#181 = CARTESIAN_POINT ( 'NONE',  ( 0.0000000000000000000, 1000.000000000000000, 0.0000000000000000000 ) ) ;
#182 = AXIS2_PLACEMENT_3D ( 'NONE', #181, #180, #179 ) ;
#183 = CIRCLE ( 'NONE', #182, 80.00000000000000000 ) ;
#184 = PRODUCT_DEFINITION_SHAPE ( 'NONE', 'NONE',  #193 ) ;
#185 = PRODUCT_RELATED_PRODUCT_CATEGORY ( 'part', '', ( #197 ) ) ;
#186 = APPLICATION_CONTEXT ( 'automotive_design' ) ;
#187 = SHAPE_DEFINITION_REPRESENTATION ( #184, #2 ) ;
#188 = DIRECTION ( 'NONE',  ( 1.000000000000000000, 0.0000000000000000000, 0.0000000000000000000 ) ) ;
#189 = DIRECTION ( 'NONE',  ( 0.0000000000000000000, 0.0000000000000000000, 1.000000000000000000 ) ) ;
#190 = AXIS2_PLACEMENT_3D ( 'NONE', #191, #189, #188 ) ;
#191 = CARTESIAN_POINT ( 'NONE',  ( 0.0000000000000000000, 0.0000000000000000000, 0.0000000000000000000 ) ) ;
#192 = PRODUCT_DEFINITION_FORMATION_WITH_SPECIFIED_SOURCE ( 'ANY', '', #197, .NOT_KNOWN. ) ;
#193 = PRODUCT_DEFINITION ( 'UNKNOWN', '', #192, #194 ) ;
#194 = PRODUCT_DEFINITION_CONTEXT ( 'detailed design', #196, 'design' ) ;
#195 = APPLICATION_PROTOCOL_DEFINITION ( 'draft international standard', 'automotive_design', 1998, #196 ) ;
#196 = APPLICATION_CONTEXT ( 'automotive_design' ) ;
#197 = PRODUCT ( 'BI 160', 'BI 160', '', ( #198 ) ) ;
#198 = PRODUCT_CONTEXT ( 'NONE', #186, 'mechanical' ) ;
#199 = APPLICATION_PROTOCOL_DEFINITION ( 'draft international standard', 'automotive_design', 1998, #186 ) ;
ENDSEC;
END-ISO-10303-21;
