ISO-10303-21;
HEADER;
FILE_DESCRIPTION (( 'STEP AP214' ),
    '1' );
FILE_NAME ('BI 125.STEP',
    '2009-07-15T21:28:44',
    ( 'Wolfgang Schmidt' ),
    ( 'WS-KO' ),
    'SwSTEP 2.0',
    'SolidWorks 2008',
    '' );
FILE_SCHEMA (( 'AUTOMOTIVE_DESIGN' ));
ENDSEC;

DATA;
#1 = EDGE_CURVE ( 'NONE', #24, #16, #78, .T. ) ;
#2 = EDGE_CURVE ( 'NONE', #17, #16, #82, .T. ) ;
#3 = ORIENTED_EDGE ( 'NONE', *, *, #2, .F. ) ;
#4 = ORIENTED_EDGE ( 'NONE', *, *, #1, .T. ) ;
#5 = EDGE_CURVE ( 'NONE', #26, #24, #88, .T. ) ;
#6 = ORIENTED_EDGE ( 'NONE', *, *, #56, .T. ) ;
#7 = ADVANCED_FACE ( 'NONE', ( #67 ), #84, .F. ) ;
#8 = ADVANCED_FACE ( 'NONE', ( #76 ), #62, .F. ) ;
#9 = MANIFOLD_SOLID_BREP ( 'NONE', #11 ) ;
#10 = ORIENTED_EDGE ( 'NONE', *, *, #28, .F. ) ;
#11 = CLOSED_SHELL ( 'NONE', ( #8, #59, #39, #35, #29, #7 ) ) ;
#12 = ORIENTED_EDGE ( 'NONE', *, *, #51, .F. ) ;
#13 = ORIENTED_EDGE ( 'NONE', *, *, #40, .F. ) ;
#14 = ORIENTED_EDGE ( 'NONE', *, *, #44, .T. ) ;
#15 = EDGE_LOOP ( 'NONE', ( #25, #4, #3, #18 ) ) ;
#16 = VERTEX_POINT ( 'NONE', #102 ) ;
#17 = VERTEX_POINT ( 'NONE', #101 ) ;
#18 = ORIENTED_EDGE ( 'NONE', *, *, #19, .F. ) ;
#19 = EDGE_CURVE ( 'NONE', #26, #17, #104, .T. ) ;
#20 = EDGE_LOOP ( 'NONE', ( #21, #22, #23, #10 ) ) ;
#21 = ORIENTED_EDGE ( 'NONE', *, *, #1, .F. ) ;
#22 = ORIENTED_EDGE ( 'NONE', *, *, #34, .T. ) ;
#23 = ORIENTED_EDGE ( 'NONE', *, *, #19, .T. ) ;
#24 = VERTEX_POINT ( 'NONE', #161 ) ;
#25 = ORIENTED_EDGE ( 'NONE', *, *, #5, .T. ) ;
#26 = VERTEX_POINT ( 'NONE', #160 ) ;
#27 = EDGE_LOOP ( 'NONE', ( #12, #13, #14, #6 ) ) ;
#28 = EDGE_CURVE ( 'NONE', #16, #17, #187, .T. ) ;
#29 = ADVANCED_FACE ( 'NONE', ( #107 ), #118, .T. ) ;
#30 = ORIENTED_EDGE ( 'NONE', *, *, #28, .T. ) ;
#31 = ORIENTED_EDGE ( 'NONE', *, *, #2, .T. ) ;
#32 = EDGE_LOOP ( 'NONE', ( #65, #57 ) ) ;
#33 = ORIENTED_EDGE ( 'NONE', *, *, #34, .F. ) ;
#34 = EDGE_CURVE ( 'NONE', #24, #26, #193, .T. ) ;
#35 = ADVANCED_FACE ( 'NONE', ( #188, #159 ), #158, .F. ) ;
#36 = ORIENTED_EDGE ( 'NONE', *, *, #47, .T. ) ;
#37 = ORIENTED_EDGE ( 'NONE', *, *, #5, .F. ) ;
#38 = EDGE_LOOP ( 'NONE', ( #37, #33 ) ) ;
#39 = ADVANCED_FACE ( 'NONE', ( #114, #113 ), #156, .T. ) ;
#40 = EDGE_CURVE ( 'NONE', #49, #48, #165, .T. ) ;
#41 = EDGE_LOOP ( 'NONE', ( #42, #36 ) ) ;
#42 = ORIENTED_EDGE ( 'NONE', *, *, #40, .T. ) ;
#43 = ORIENTED_EDGE ( 'NONE', *, *, #44, .F. ) ;
#44 = EDGE_CURVE ( 'NONE', #49, #53, #166, .T. ) ;
#45 = EDGE_LOOP ( 'NONE', ( #46, #50, #55, #43 ) ) ;
#46 = ORIENTED_EDGE ( 'NONE', *, *, #47, .F. ) ;
#47 = EDGE_CURVE ( 'NONE', #48, #49, #151, .T. ) ;
#48 = VERTEX_POINT ( 'NONE', #146 ) ;
#49 = VERTEX_POINT ( 'NONE', #145 ) ;
#50 = ORIENTED_EDGE ( 'NONE', *, *, #51, .T. ) ;
#51 = EDGE_CURVE ( 'NONE', #48, #52, #144, .T. ) ;
#52 = VERTEX_POINT ( 'NONE', #140 ) ;
#53 = VERTEX_POINT ( 'NONE', #139 ) ;
#54 = EDGE_CURVE ( 'NONE', #52, #53, #138, .T. ) ;
#55 = ORIENTED_EDGE ( 'NONE', *, *, #54, .T. ) ;
#56 = EDGE_CURVE ( 'NONE', #53, #52, #133, .T. ) ;
#57 = ORIENTED_EDGE ( 'NONE', *, *, #54, .F. ) ;
#58 = EDGE_LOOP ( 'NONE', ( #31, #30 ) ) ;
#59 = ADVANCED_FACE ( 'NONE', ( #183 ), #182, .T. ) ;
#60 = DIRECTION ( 'NONE',  ( 0.0000000000000000000, 0.0000000000000000000, -1.000000000000000000 ) ) ;
#61 =( NAMED_UNIT ( * ) PLANE_ANGLE_UNIT ( ) SI_UNIT ( $, .RADIAN. ) );
#62 = CYLINDRICAL_SURFACE ( 'NONE', #64, 20.00000000000000000 ) ;
#63 = DIRECTION ( 'NONE',  ( -0.0000000000000000000, -1.000000000000000000, -0.0000000000000000000 ) ) ;
#64 = AXIS2_PLACEMENT_3D ( 'NONE', #66, #63, #60 ) ;
#65 = ORIENTED_EDGE ( 'NONE', *, *, #56, .F. ) ;
#66 = CARTESIAN_POINT ( 'NONE',  ( 0.0000000000000000000, 1000.000000000000000, 0.0000000000000000000 ) ) ;
#67 = FACE_OUTER_BOUND ( 'NONE', #20, .T. ) ;
#68 = DIRECTION ( 'NONE',  ( 0.0000000000000000000, 0.0000000000000000000, 1.000000000000000000 ) ) ;
#69 = DIRECTION ( 'NONE',  ( 0.0000000000000000000, 1.000000000000000000, 0.0000000000000000000 ) ) ;
#70 = CARTESIAN_POINT ( 'NONE',  ( 0.0000000000000000000, 0.0000000000000000000, 0.0000000000000000000 ) ) ;
#71 = CARTESIAN_POINT ( 'NONE',  ( 0.0000000000000000000, 1000.000000000000000, 0.0000000000000000000 ) ) ;
#72 =( NAMED_UNIT ( * ) SI_UNIT ( $, .STERADIAN. ) SOLID_ANGLE_UNIT ( ) );
#73 = DIRECTION ( 'NONE',  ( 0.0000000000000000000, 0.0000000000000000000, -1.000000000000000000 ) ) ;
#74 = DIRECTION ( 'NONE',  ( -0.0000000000000000000, -1.000000000000000000, -0.0000000000000000000 ) ) ;
#75 = CARTESIAN_POINT ( 'NONE',  ( 0.0000000000000000000, 1000.000000000000000, 0.0000000000000000000 ) ) ;
#76 = FACE_OUTER_BOUND ( 'NONE', #15, .T. ) ;
#77 = CARTESIAN_POINT ( 'NONE',  ( 2.449212707644754500E-015, 1000.000000000000000, 20.00000000000000000 ) ) ;
#78 = LINE ( 'NONE', #77, #80 ) ;
#79 = DIRECTION ( 'NONE',  ( -0.0000000000000000000, -1.000000000000000000, -0.0000000000000000000 ) ) ;
#80 = VECTOR ( 'NONE', #79, 1000.000000000000000 ) ;
#81 = AXIS2_PLACEMENT_3D ( 'NONE', #70, #69, #68 ) ;
#82 = CIRCLE ( 'NONE', #81, 20.00000000000000000 ) ;
#83 = AXIS2_PLACEMENT_3D ( 'NONE', #75, #74, #73 ) ;
#84 = CYLINDRICAL_SURFACE ( 'NONE', #83, 20.00000000000000000 ) ;
#85 = DIRECTION ( 'NONE',  ( 0.0000000000000000000, 0.0000000000000000000, 1.000000000000000000 ) ) ;
#86 = DIRECTION ( 'NONE',  ( 0.0000000000000000000, 1.000000000000000000, 0.0000000000000000000 ) ) ;
#87 = AXIS2_PLACEMENT_3D ( 'NONE', #71, #86, #85 ) ;
#88 = CIRCLE ( 'NONE', #87, 20.00000000000000000 ) ;
#89 = SURFACE_STYLE_FILL_AREA ( #92 ) ;
#90 = SURFACE_STYLE_USAGE ( .BOTH. , #91 ) ;
#91 = SURFACE_SIDE_STYLE ('',( #89 ) ) ;
#92 = FILL_AREA_STYLE ('',( #98 ) ) ;
#93 =( LENGTH_UNIT ( ) NAMED_UNIT ( * ) SI_UNIT ( .MILLI., .METRE. ) );
#94 = MECHANICAL_DESIGN_GEOMETRIC_PRESENTATION_REPRESENTATION (  '', ( #96 ), #100 ) ;
#95 = PRESENTATION_LAYER_ASSIGNMENT (  '', '', ( #96 ) ) ;
#96 = STYLED_ITEM ( 'NONE', ( #97 ), #9 ) ;
#97 = PRESENTATION_STYLE_ASSIGNMENT (( #90 ) ) ;
#98 = FILL_AREA_STYLE_COLOUR ( '', #99 ) ;
#99 = COLOUR_RGB ( '',1.000000000000000000, 1.000000000000000000, 1.000000000000000000 ) ;
#100 =( GEOMETRIC_REPRESENTATION_CONTEXT ( 3 ) GLOBAL_UNCERTAINTY_ASSIGNED_CONTEXT ( ( #103 ) ) GLOBAL_UNIT_ASSIGNED_CONTEXT ( ( #93, #61, #72 ) ) REPRESENTATION_CONTEXT ( 'NONE', 'WORKASPACE' ) );
#101 = CARTESIAN_POINT ( 'NONE',  ( 0.0000000000000000000, 0.0000000000000000000, -20.00000000000000000 ) ) ;
#102 = CARTESIAN_POINT ( 'NONE',  ( 2.449212707644754500E-015, 0.0000000000000000000, 20.00000000000000000 ) ) ;
#103 = UNCERTAINTY_MEASURE_WITH_UNIT (LENGTH_MEASURE( 1.000000000000000100E-005 ), #93, 'distance_accuracy_value', 'NONE');
#104 = LINE ( 'NONE', #171, #108 ) ;
#105 = CARTESIAN_POINT ( 'NONE',  ( 0.0000000000000000000, 0.0000000000000000000, 0.0000000000000000000 ) ) ;
#106 = AXIS2_PLACEMENT_3D ( 'NONE', #105, #186, #185 ) ;
#107 = FACE_OUTER_BOUND ( 'NONE', #27, .T. ) ;
#108 = VECTOR ( 'NONE', #152, 1000.000000000000000 ) ;
#109 = AXIS2_PLACEMENT_3D ( 'NONE', #112, #111, #167 ) ;
#110 = CARTESIAN_POINT ( 'NONE',  ( 0.0000000000000000000, 1000.000000000000000, 0.0000000000000000000 ) ) ;
#111 = DIRECTION ( 'NONE',  ( 0.0000000000000000000, 1.000000000000000000, 0.0000000000000000000 ) ) ;
#112 = CARTESIAN_POINT ( 'NONE',  ( 0.0000000000000000000, 1000.000000000000000, 0.0000000000000000000 ) ) ;
#113 = FACE_BOUND ( 'NONE', #38, .T. ) ;
#114 = FACE_OUTER_BOUND ( 'NONE', #41, .T. ) ;
#115 = DIRECTION ( 'NONE',  ( 0.0000000000000000000, 0.0000000000000000000, -1.000000000000000000 ) ) ;
#116 = DIRECTION ( 'NONE',  ( -0.0000000000000000000, -1.000000000000000000, -0.0000000000000000000 ) ) ;
#117 = AXIS2_PLACEMENT_3D ( 'NONE', #184, #116, #115 ) ;
#118 = CYLINDRICAL_SURFACE ( 'NONE', #117, 62.50000000000000000 ) ;
#119 = PRODUCT_DEFINITION_SHAPE ( 'NONE', 'NONE',  #122 ) ;
#120 = PRODUCT_RELATED_PRODUCT_CATEGORY ( 'part', '', ( #126 ) ) ;
#121 = PRODUCT_DEFINITION_FORMATION_WITH_SPECIFIED_SOURCE ( 'ANY', '', #126, .NOT_KNOWN. ) ;
#122 = PRODUCT_DEFINITION ( 'UNKNOWN', '', #121, #123 ) ;
#123 = PRODUCT_DEFINITION_CONTEXT ( 'detailed design', #125, 'design' ) ;
#124 = APPLICATION_PROTOCOL_DEFINITION ( 'draft international standard', 'automotive_design', 1998, #125 ) ;
#125 = APPLICATION_CONTEXT ( 'automotive_design' ) ;
#126 = PRODUCT ( 'BI 125', 'BI 125', '', ( #127 ) ) ;
#127 = PRODUCT_CONTEXT ( 'NONE', #194, 'mechanical' ) ;
#128 = APPLICATION_PROTOCOL_DEFINITION ( 'draft international standard', 'automotive_design', 1998, #194 ) ;
#129 = DIRECTION ( 'NONE',  ( 0.0000000000000000000, 0.0000000000000000000, 1.000000000000000000 ) ) ;
#130 = DIRECTION ( 'NONE',  ( 0.0000000000000000000, 1.000000000000000000, 0.0000000000000000000 ) ) ;
#131 = CARTESIAN_POINT ( 'NONE',  ( 0.0000000000000000000, 0.0000000000000000000, 0.0000000000000000000 ) ) ;
#132 = AXIS2_PLACEMENT_3D ( 'NONE', #131, #130, #129 ) ;
#133 = CIRCLE ( 'NONE', #132, 62.50000000000000000 ) ;
#134 = DIRECTION ( 'NONE',  ( 0.0000000000000000000, 0.0000000000000000000, 1.000000000000000000 ) ) ;
#135 = DIRECTION ( 'NONE',  ( 0.0000000000000000000, 1.000000000000000000, 0.0000000000000000000 ) ) ;
#136 = CARTESIAN_POINT ( 'NONE',  ( 0.0000000000000000000, 0.0000000000000000000, 0.0000000000000000000 ) ) ;
#137 = AXIS2_PLACEMENT_3D ( 'NONE', #136, #135, #134 ) ;
#138 = CIRCLE ( 'NONE', #137, 62.50000000000000000 ) ;
#139 = CARTESIAN_POINT ( 'NONE',  ( 0.0000000000000000000, 0.0000000000000000000, -62.50000000000000000 ) ) ;
#140 = CARTESIAN_POINT ( 'NONE',  ( 7.653789711389857900E-015, 0.0000000000000000000, 62.50000000000000000 ) ) ;
#141 = DIRECTION ( 'NONE',  ( -0.0000000000000000000, -1.000000000000000000, -0.0000000000000000000 ) ) ;
#142 = VECTOR ( 'NONE', #141, 1000.000000000000000 ) ;
#143 = CARTESIAN_POINT ( 'NONE',  ( 7.653789711389857900E-015, 1000.000000000000000, 62.50000000000000000 ) ) ;
#144 = LINE ( 'NONE', #143, #142 ) ;
#145 = CARTESIAN_POINT ( 'NONE',  ( 0.0000000000000000000, 1000.000000000000000, -62.50000000000000000 ) ) ;
#146 = CARTESIAN_POINT ( 'NONE',  ( 7.653789711389857900E-015, 1000.000000000000000, 62.50000000000000000 ) ) ;
#147 = DIRECTION ( 'NONE',  ( 0.0000000000000000000, 0.0000000000000000000, 1.000000000000000000 ) ) ;
#148 = DIRECTION ( 'NONE',  ( 0.0000000000000000000, 1.000000000000000000, 0.0000000000000000000 ) ) ;
#149 = CARTESIAN_POINT ( 'NONE',  ( 0.0000000000000000000, 1000.000000000000000, 0.0000000000000000000 ) ) ;
#150 = AXIS2_PLACEMENT_3D ( 'NONE', #149, #148, #147 ) ;
#151 = CIRCLE ( 'NONE', #150, 62.50000000000000000 ) ;
#152 = DIRECTION ( 'NONE',  ( -0.0000000000000000000, -1.000000000000000000, -0.0000000000000000000 ) ) ;
#153 = DIRECTION ( 'NONE',  ( 0.0000000000000000000, -0.0000000000000000000, 1.000000000000000000 ) ) ;
#154 = DIRECTION ( 'NONE',  ( 0.0000000000000000000, 1.000000000000000000, 0.0000000000000000000 ) ) ;
#155 = AXIS2_PLACEMENT_3D ( 'NONE', #157, #154, #153 ) ;
#156 = PLANE ( 'NONE',  #109 ) ;
#157 = CARTESIAN_POINT ( 'NONE',  ( 0.0000000000000000000, 0.0000000000000000000, 0.0000000000000000000 ) ) ;
#158 = PLANE ( 'NONE',  #155 ) ;
#159 = FACE_BOUND ( 'NONE', #58, .T. ) ;
#160 = CARTESIAN_POINT ( 'NONE',  ( 0.0000000000000000000, 1000.000000000000000, -20.00000000000000000 ) ) ;
#161 = CARTESIAN_POINT ( 'NONE',  ( 2.449212707644754500E-015, 1000.000000000000000, 20.00000000000000000 ) ) ;
#162 = DIRECTION ( 'NONE',  ( 0.0000000000000000000, 0.0000000000000000000, 1.000000000000000000 ) ) ;
#163 = DIRECTION ( 'NONE',  ( 0.0000000000000000000, 1.000000000000000000, 0.0000000000000000000 ) ) ;
#164 = AXIS2_PLACEMENT_3D ( 'NONE', #110, #163, #162 ) ;
#165 = CIRCLE ( 'NONE', #164, 62.50000000000000000 ) ;
#166 = LINE ( 'NONE', #170, #169 ) ;
#167 = DIRECTION ( 'NONE',  ( 0.0000000000000000000, -0.0000000000000000000, 1.000000000000000000 ) ) ;
#168 = DIRECTION ( 'NONE',  ( -0.0000000000000000000, -1.000000000000000000, -0.0000000000000000000 ) ) ;
#169 = VECTOR ( 'NONE', #168, 1000.000000000000000 ) ;
#170 = CARTESIAN_POINT ( 'NONE',  ( 0.0000000000000000000, 1000.000000000000000, -62.50000000000000000 ) ) ;
#171 = CARTESIAN_POINT ( 'NONE',  ( 0.0000000000000000000, 1000.000000000000000, -20.00000000000000000 ) ) ;
#172 =( GEOMETRIC_REPRESENTATION_CONTEXT ( 3 ) GLOBAL_UNCERTAINTY_ASSIGNED_CONTEXT ( ( #173 ) ) GLOBAL_UNIT_ASSIGNED_CONTEXT ( ( #176, #175, #174 ) ) REPRESENTATION_CONTEXT ( 'NONE', 'WORKASPACE' ) );
#173 = UNCERTAINTY_MEASURE_WITH_UNIT (LENGTH_MEASURE( 1.000000000000000100E-005 ), #176, 'distance_accuracy_value', 'NONE');
#174 =( NAMED_UNIT ( * ) SI_UNIT ( $, .STERADIAN. ) SOLID_ANGLE_UNIT ( ) );
#175 =( NAMED_UNIT ( * ) PLANE_ANGLE_UNIT ( ) SI_UNIT ( $, .RADIAN. ) );
#176 =( LENGTH_UNIT ( ) NAMED_UNIT ( * ) SI_UNIT ( .MILLI., .METRE. ) );
#177 = DIRECTION ( 'NONE',  ( 0.0000000000000000000, 0.0000000000000000000, -1.000000000000000000 ) ) ;
#178 = DIRECTION ( 'NONE',  ( -0.0000000000000000000, -1.000000000000000000, -0.0000000000000000000 ) ) ;
#179 = CARTESIAN_POINT ( 'NONE',  ( 0.0000000000000000000, 1000.000000000000000, 0.0000000000000000000 ) ) ;
#180 = AXIS2_PLACEMENT_3D ( 'NONE', #179, #178, #177 ) ;
#181 = AXIS2_PLACEMENT_3D ( 'NONE', #197, #196, #195 ) ;
#182 = CYLINDRICAL_SURFACE ( 'NONE', #180, 62.50000000000000000 ) ;
#183 = FACE_OUTER_BOUND ( 'NONE', #45, .T. ) ;
#184 = CARTESIAN_POINT ( 'NONE',  ( 0.0000000000000000000, 1000.000000000000000, 0.0000000000000000000 ) ) ;
#185 = DIRECTION ( 'NONE',  ( 0.0000000000000000000, 0.0000000000000000000, 1.000000000000000000 ) ) ;
#186 = DIRECTION ( 'NONE',  ( 0.0000000000000000000, 1.000000000000000000, 0.0000000000000000000 ) ) ;
#187 = CIRCLE ( 'NONE', #106, 20.00000000000000000 ) ;
#188 = FACE_OUTER_BOUND ( 'NONE', #32, .T. ) ;
#189 = DIRECTION ( 'NONE',  ( 0.0000000000000000000, 0.0000000000000000000, 1.000000000000000000 ) ) ;
#190 = DIRECTION ( 'NONE',  ( 0.0000000000000000000, 1.000000000000000000, 0.0000000000000000000 ) ) ;
#191 = CARTESIAN_POINT ( 'NONE',  ( 0.0000000000000000000, 1000.000000000000000, 0.0000000000000000000 ) ) ;
#192 = AXIS2_PLACEMENT_3D ( 'NONE', #191, #190, #189 ) ;
#193 = CIRCLE ( 'NONE', #192, 20.00000000000000000 ) ;
#194 = APPLICATION_CONTEXT ( 'automotive_design' ) ;
#195 = DIRECTION ( 'NONE',  ( 1.000000000000000000, 0.0000000000000000000, 0.0000000000000000000 ) ) ;
#196 = DIRECTION ( 'NONE',  ( 0.0000000000000000000, 0.0000000000000000000, 1.000000000000000000 ) ) ;
#197 = CARTESIAN_POINT ( 'NONE',  ( 0.0000000000000000000, 0.0000000000000000000, 0.0000000000000000000 ) ) ;
#198 = SHAPE_DEFINITION_REPRESENTATION ( #119, #199 ) ;
#199 = ADVANCED_BREP_SHAPE_REPRESENTATION ( 'BI 125', ( #9, #181 ), #172 ) ;
ENDSEC;
END-ISO-10303-21;
