ISO-10303-21;
HEADER;
FILE_DESCRIPTION(('Creo Elements/Direct Modeling STEP Export'),'2;1');
FILE_NAME('0059.0080_PP60RHL.stp','2017-07-21T14:08:43',(''),(''),
'PTC Creo Elements/Direct Modeling STEP processor for AP214 (Solid Model
)',
'PTC Creo Elements/Direct Modeling 19.0C  15-Aug-2015 (C) Parametric Tec
hnology GmbH','');
FILE_SCHEMA(('AUTOMOTIVE_DESIGN { 1 0 10303 214 1 1 1 1 }'));
ENDSEC;
DATA;
#10=CARTESIAN_POINT('',(0.,0.,0.));
#20=DIRECTION('',(0.,0.,1.));
#30=DIRECTION('',(1.,0.,0.));
#40=AXIS2_PLACEMENT_3D('',#10,#20,#30);
#50=PLANE('',#40);
#60=CARTESIAN_POINT('',(0.,0.,0.));
#70=DIRECTION('',(0.,0.,1.));
#80=DIRECTION('',(1.,0.,0.));
#90=AXIS2_PLACEMENT_3D('',#60,#70,#80);
#100=CIRCLE('',#90,98.2);
#110=CARTESIAN_POINT('',(98.2,0.,0.));
#120=VERTEX_POINT('954871-1500623161-5065f32f055a-0 2250057',#110);
#130=CARTESIAN_POINT('',(-98.2,1.2026031567627E-14,0.));
#140=VERTEX_POINT('',#130);
#150=EDGE_CURVE('954871-1500623161-5065f32f055a-0 2250056',#120,#140,
#100,.T.);
#160=ORIENTED_EDGE('',*,*,#150,.T.);
#170=EDGE_CURVE('954871-1500623161-5065f32f055a-0 2250056',#140,#120,
#100,.T.);
#180=ORIENTED_EDGE('',*,*,#170,.T.);
#190=EDGE_LOOP('',(#180,#160));
#200=FACE_BOUND('',#190,.T.);
#210=CARTESIAN_POINT('',(0.,0.,0.));
#220=DIRECTION('',(0.,0.,1.));
#230=DIRECTION('',(1.,0.,0.));
#240=AXIS2_PLACEMENT_3D('',#210,#220,#230);
#250=CIRCLE('',#240,100.);
#260=CARTESIAN_POINT('',(100.,0.,0.));
#270=VERTEX_POINT('954871-1500623161-5065f32f055a-0 2250053',#260);
#280=CARTESIAN_POINT('',(-100.,1.22464679914735E-14,0.));
#290=VERTEX_POINT('',#280);
#300=EDGE_CURVE('954871-1500623161-5065f32f055a-0 2250052',#270,#290,
#250,.T.);
#310=ORIENTED_EDGE('',*,*,#300,.F.);
#320=EDGE_CURVE('954871-1500623161-5065f32f055a-0 2250052',#290,#270,
#250,.T.);
#330=ORIENTED_EDGE('',*,*,#320,.F.);
#340=EDGE_LOOP('',(#330,#310));
#350=FACE_OUTER_BOUND('',#340,.T.);
#360=ADVANCED_FACE('954871-1500623161-5065f32f055a-0 2250070',(#200,#350
),#50,.F.);
#370=CARTESIAN_POINT('',(0.,0.,700.));
#380=DIRECTION('',(0.,0.,1.));
#390=DIRECTION('',(1.,0.,0.));
#400=AXIS2_PLACEMENT_3D('',#370,#380,#390);
#410=PLANE('',#400);
#420=CARTESIAN_POINT('',(0.,0.,700.));
#430=DIRECTION('',(0.,0.,1.));
#440=DIRECTION('',(1.,0.,0.));
#450=AXIS2_PLACEMENT_3D('',#420,#430,#440);
#460=CIRCLE('',#450,98.2);
#470=CARTESIAN_POINT('',(98.2,0.,700.));
#480=VERTEX_POINT('954871-1500623161-5065f32f055a-0 2250089',#470);
#490=CARTESIAN_POINT('',(-98.2,1.2026031567627E-14,700.));
#500=VERTEX_POINT('',#490);
#510=EDGE_CURVE('954871-1500623161-5065f32f055a-0 2250087',#480,#500,
#460,.T.);
#520=ORIENTED_EDGE('',*,*,#510,.F.);
#530=EDGE_CURVE('954871-1500623161-5065f32f055a-0 2250087',#500,#480,
#460,.T.);
#540=ORIENTED_EDGE('',*,*,#530,.F.);
#550=EDGE_LOOP('',(#540,#520));
#560=FACE_BOUND('',#550,.T.);
#570=CARTESIAN_POINT('',(0.,0.,700.));
#580=DIRECTION('',(0.,0.,1.));
#590=DIRECTION('',(1.,0.,0.));
#600=AXIS2_PLACEMENT_3D('',#570,#580,#590);
#610=CIRCLE('',#600,100.);
#620=CARTESIAN_POINT('',(100.,0.,700.));
#630=VERTEX_POINT('954871-1500623161-5065f32f055a-0 2250081',#620);
#640=CARTESIAN_POINT('',(-100.,1.22464679914735E-14,700.));
#650=VERTEX_POINT('',#640);
#660=EDGE_CURVE('954871-1500623161-5065f32f055a-0 2250079',#630,#650,
#610,.T.);
#670=ORIENTED_EDGE('',*,*,#660,.T.);
#680=EDGE_CURVE('954871-1500623161-5065f32f055a-0 2250079',#650,#630,
#610,.T.);
#690=ORIENTED_EDGE('',*,*,#680,.T.);
#700=EDGE_LOOP('',(#690,#670));
#710=FACE_OUTER_BOUND('',#700,.T.);
#720=ADVANCED_FACE('954871-1500623161-5065f32f055a-0 2250049',(#560,#710
),#410,.T.);
#730=CARTESIAN_POINT('',(0.,0.,0.));
#740=DIRECTION('',(0.,0.,1.));
#750=DIRECTION('',(1.,0.,0.));
#760=AXIS2_PLACEMENT_3D('',#730,#740,#750);
#770=CYLINDRICAL_SURFACE('',#760,100.);
#780=CARTESIAN_POINT('',(100.,0.,0.));
#790=DIRECTION('',(0.,0.,1.));
#800=VECTOR('',#790,1.);
#810=LINE('',#780,#800);
#820=EDGE_CURVE('',#270,#630,#810,.T.);
#830=ORIENTED_EDGE('',*,*,#820,.T.);
#840=ORIENTED_EDGE('',*,*,#320,.T.);
#850=CARTESIAN_POINT('',(-100.,1.22464679914735E-14,0.));
#860=DIRECTION('',(0.,0.,1.));
#870=VECTOR('',#860,1.);
#880=LINE('',#850,#870);
#890=EDGE_CURVE('',#290,#650,#880,.T.);
#900=ORIENTED_EDGE('',*,*,#890,.F.);
#910=ORIENTED_EDGE('',*,*,#680,.F.);
#920=EDGE_LOOP('',(#910,#900,#840,#830));
#930=FACE_OUTER_BOUND('',#920,.T.);
#940=ADVANCED_FACE('954871-1500623161-5065f32f055a-0 2250102',(#930),
#770,.T.);
#950=CARTESIAN_POINT('',(0.,0.,0.));
#960=DIRECTION('',(0.,0.,1.));
#970=DIRECTION('',(1.,0.,0.));
#980=AXIS2_PLACEMENT_3D('',#950,#960,#970);
#990=CYLINDRICAL_SURFACE('',#980,100.);
#1000=ORIENTED_EDGE('',*,*,#660,.F.);
#1010=ORIENTED_EDGE('',*,*,#890,.T.);
#1020=ORIENTED_EDGE('',*,*,#300,.T.);
#1030=ORIENTED_EDGE('',*,*,#820,.F.);
#1040=EDGE_LOOP('',(#1030,#1020,#1010,#1000));
#1050=FACE_OUTER_BOUND('',#1040,.T.);
#1060=ADVANCED_FACE('954871-1500623161-5065f32f055a-0 2250102',(#1050),
#990,.T.);
#1070=CARTESIAN_POINT('',(0.,0.,0.));
#1080=DIRECTION('',(0.,0.,1.));
#1090=DIRECTION('',(1.,0.,0.));
#1100=AXIS2_PLACEMENT_3D('',#1070,#1080,#1090);
#1110=CYLINDRICAL_SURFACE('',#1100,98.2);
#1120=CARTESIAN_POINT('',(-98.2,1.2026031567627E-14,0.));
#1130=DIRECTION('',(0.,0.,1.));
#1140=VECTOR('',#1130,1.);
#1150=LINE('',#1120,#1140);
#1160=EDGE_CURVE('',#140,#500,#1150,.T.);
#1170=ORIENTED_EDGE('',*,*,#1160,.T.);
#1180=ORIENTED_EDGE('',*,*,#170,.F.);
#1190=CARTESIAN_POINT('',(98.2,0.,0.));
#1200=DIRECTION('',(0.,0.,1.));
#1210=VECTOR('',#1200,1.);
#1220=LINE('',#1190,#1210);
#1230=EDGE_CURVE('',#120,#480,#1220,.T.);
#1240=ORIENTED_EDGE('',*,*,#1230,.F.);
#1250=ORIENTED_EDGE('',*,*,#530,.T.);
#1260=EDGE_LOOP('',(#1250,#1240,#1180,#1170));
#1270=FACE_OUTER_BOUND('',#1260,.T.);
#1280=ADVANCED_FACE('954871-1500623161-5065f32f055a-0 2250118',(#1270),
#1110,.F.);
#1290=CARTESIAN_POINT('',(0.,0.,0.));
#1300=DIRECTION('',(0.,0.,1.));
#1310=DIRECTION('',(1.,0.,0.));
#1320=AXIS2_PLACEMENT_3D('',#1290,#1300,#1310);
#1330=CYLINDRICAL_SURFACE('',#1320,98.2);
#1340=ORIENTED_EDGE('',*,*,#150,.F.);
#1350=ORIENTED_EDGE('',*,*,#1160,.F.);
#1360=ORIENTED_EDGE('',*,*,#510,.T.);
#1370=ORIENTED_EDGE('',*,*,#1230,.T.);
#1380=EDGE_LOOP('',(#1370,#1360,#1350,#1340));
#1390=FACE_OUTER_BOUND('',#1380,.T.);
#1400=ADVANCED_FACE('954871-1500623161-5065f32f055a-0 2250118',(#1390),
#1330,.F.);
#1410=CLOSED_SHELL('',(#940,#1060,#1280,#1400,#720,#360));
#1420=MANIFOLD_SOLID_BREP('',#1410);
#1430=CARTESIAN_POINT('',(0.,0.,0.));
#1440=DIRECTION('',(0.,0.,1.));
#1450=DIRECTION('',(1.,0.,0.));
#1460=AXIS2_PLACEMENT_3D('',#1430,#1440,#1450);
#1470=APPLICATION_CONTEXT(' ');
#1480=APPLICATION_PROTOCOL_DEFINITION(' ','automotive_design',1998,#1470
);
#1490=PRODUCT_CONTEXT('',#1470,'mechanical');
#1500=PRODUCT_DEFINITION_CONTEXT('part definition',#1470,'design');
#1510=PRODUCT('0059.0080_PP60RHL','0059.0080_PP60RHL','',(#1490));
#1520=PRODUCT_RELATED_PRODUCT_CATEGORY('part',' ',(#1510));
#1530=PRODUCT_DEFINITION_FORMATION_WITH_SPECIFIED_SOURCE('','',#1510,
.BOUGHT.);
#1540=PRODUCT_DEFINITION('',' ',#1530,#1500);
#1550=PRODUCT_DEFINITION_SHAPE('','',#1540);
#1560=DIMENSIONAL_EXPONENTS(1.,0.,0.,0.,0.,0.,0.);
#1570=DIMENSIONAL_EXPONENTS(0.,0.,0.,0.,0.,0.,0.);
#1580=DIMENSIONAL_EXPONENTS(0.,0.,0.,0.,0.,0.,0.);
#1590=(LENGTH_UNIT() NAMED_UNIT(*) SI_UNIT(.MILLI.,.METRE.));
#1600=(NAMED_UNIT(*) PLANE_ANGLE_UNIT() SI_UNIT($,.RADIAN.));
#1610=(NAMED_UNIT(*) SI_UNIT($,.STERADIAN.) SOLID_ANGLE_UNIT());
#1620=(GEOMETRIC_REPRESENTATION_CONTEXT(3) 
GLOBAL_UNCERTAINTY_ASSIGNED_CONTEXT((#1630)) 
GLOBAL_UNIT_ASSIGNED_CONTEXT((#1590,#1600,#1610)) REPRESENTATION_CONTEXT
('',''));
#1630=UNCERTAINTY_MEASURE_WITH_UNIT(LENGTH_MEASURE(1.E-6),#1590,
'distance_accuracy_value','maximum gap value');
#1640=ADVANCED_BREP_SHAPE_REPRESENTATION('',(#1460,#1420),#1620);
#1650=SHAPE_DEFINITION_REPRESENTATION(#1550,#1640);
#1660=COLOUR_RGB('',0.600000023841858,0.600000023841858,
0.600000023841858);
#1670=FILL_AREA_STYLE_COLOUR('',#1660);
#1680=FILL_AREA_STYLE('',(#1670));
#1690=SURFACE_STYLE_FILL_AREA(#1680);
#1700=SURFACE_SIDE_STYLE('',(#1690));
#1710=SURFACE_STYLE_USAGE(.BOTH.,#1700);
#1720=PRESENTATION_STYLE_ASSIGNMENT((#1710));
#1730=STYLED_ITEM('',(#1720),#1420);
#1740=DRAUGHTING_MODEL('',(#1730),#1620);
ENDSEC;
END-ISO-10303-21;
