ISO-10303-21;
HEADER;
FILE_DESCRIPTION(('Creo Elements/Direct Modeling STEP Export'),'2;1');
FILE_NAME('0059.0964_MF-A75.stp','2017-07-11T17:00:28',(''),(''),
'PTC Creo Elements/Direct Modeling STEP processor for AP214 (Solid Model
)',
'PTC Creo Elements/Direct Modeling 19.0C  15-Aug-2015 (C) Parametric Tec
hnology GmbH','');
FILE_SCHEMA(('AUTOMOTIVE_DESIGN { 1 0 10303 214 1 1 1 1 }'));
ENDSEC;
DATA;
#10=CARTESIAN_POINT('',(-252.02936213861,-127.6202386,1502.88865785614))
;
#20=DIRECTION('',(6.24540313333696E-18,-1.,-8.99180471788542E-30));
#30=DIRECTION('',(-2.46013045396019E-13,7.45535407332735E-30,-1.));
#40=AXIS2_PLACEMENT_3D('',#10,#20,#30);
#50=CYLINDRICAL_SURFACE('',#40,35.);
#60=CARTESIAN_POINT('',(-252.029362138602,-127.6202386,1537.88865785614)
);
#70=DIRECTION('',(6.24540313333696E-18,-1.,-8.99180471788542E-30));
#80=VECTOR('',#70,1.);
#90=LINE('',#60,#80);
#100=CARTESIAN_POINT('',(-252.029362138602,-131.370241,1537.88865785614)
);
#110=VERTEX_POINT('',#100);
#120=CARTESIAN_POINT('',(-252.029362138602,-133.370241,1537.88865785614)
);
#130=VERTEX_POINT('',#120);
#140=EDGE_CURVE('',#110,#130,#90,.T.);
#150=ORIENTED_EDGE('',*,*,#140,.T.);
#160=CARTESIAN_POINT('',(-252.02936213861,-131.370241,1502.88865785614))
;
#170=DIRECTION('',(6.24540313333696E-18,-1.,-8.99180471788542E-30));
#180=DIRECTION('',(-2.46013045396019E-13,7.45535407332735E-30,-1.));
#190=AXIS2_PLACEMENT_3D('',#160,#170,#180);
#200=CIRCLE('',#190,35.);
#210=CARTESIAN_POINT('',(-252.029362138619,-131.370241,1467.88865785614)
);
#220=VERTEX_POINT('',#210);
#230=EDGE_CURVE('',#110,#220,#200,.T.);
#240=ORIENTED_EDGE('',*,*,#230,.F.);
#250=CARTESIAN_POINT('',(-252.029362138619,-127.6202386,1467.88865785614
));
#260=DIRECTION('',(6.24540313333696E-18,-1.,-8.99180471788542E-30));
#270=VECTOR('',#260,1.);
#280=LINE('',#250,#270);
#290=CARTESIAN_POINT('',(-252.029362138619,-133.370241,1467.88865785614)
);
#300=VERTEX_POINT('',#290);
#310=EDGE_CURVE('',#220,#300,#280,.T.);
#320=ORIENTED_EDGE('',*,*,#310,.F.);
#330=CARTESIAN_POINT('',(-252.02936213861,-133.370241,1502.88865785614))
;
#340=DIRECTION('',(6.24540313333696E-18,-1.,-8.99180471788542E-30));
#350=DIRECTION('',(-2.46013045396019E-13,7.45535407332735E-30,-1.));
#360=AXIS2_PLACEMENT_3D('',#330,#340,#350);
#370=CIRCLE('',#360,35.);
#380=EDGE_CURVE('',#130,#300,#370,.T.);
#390=ORIENTED_EDGE('',*,*,#380,.T.);
#400=EDGE_LOOP('',(#390,#320,#240,#150));
#410=FACE_OUTER_BOUND('',#400,.T.);
#420=ADVANCED_FACE('',(#410),#50,.F.);
#430=CARTESIAN_POINT('',(-295.416216448089,-133.370241,1502.88865785607)
);
#440=DIRECTION('',(6.35871966686791E-30,1.,-6.39825059888484E-30));
#450=DIRECTION('',(3.2135281679166E-12,6.3982505988644E-30,1.));
#460=AXIS2_PLACEMENT_3D('',#430,#440,#450);
#470=PLANE('',#460);
#480=EDGE_CURVE('',#300,#130,#370,.T.);
#490=ORIENTED_EDGE('',*,*,#480,.F.);
#500=ORIENTED_EDGE('',*,*,#380,.F.);
#510=EDGE_LOOP('',(#500,#490));
#520=FACE_BOUND('',#510,.T.);
#530=CARTESIAN_POINT('',(-252.029362138813,-133.370241,1502.88865785634)
);
#540=DIRECTION('',(6.92320172648581E-30,1.,6.9692274719986E-30));
#550=DIRECTION('',(3.45955359017354E-12,-6.97823691885265E-30,1.));
#560=AXIS2_PLACEMENT_3D('',#530,#540,#550);
#570=CIRCLE('',#560,50.15);
#580=CARTESIAN_POINT('',(-287.490767215232,-133.370241,1467.42725277985)
);
#590=VERTEX_POINT('',#580);
#600=CARTESIAN_POINT('',(-252.02936213872,-133.370241,1553.03865785629))
;
#610=VERTEX_POINT('',#600);
#620=EDGE_CURVE('',#590,#610,#570,.T.);
#630=ORIENTED_EDGE('',*,*,#620,.F.);
#640=CARTESIAN_POINT('',(-252.029362138602,-133.370240999999,
1452.73865785629));
#650=VERTEX_POINT('',#640);
#660=EDGE_CURVE('',#610,#650,#570,.T.);
#670=ORIENTED_EDGE('',*,*,#660,.F.);
#680=EDGE_CURVE('',#650,#590,#570,.T.);
#690=ORIENTED_EDGE('',*,*,#680,.F.);
#700=EDGE_LOOP('',(#690,#670,#630));
#710=FACE_OUTER_BOUND('',#700,.T.);
#720=ADVANCED_FACE('',(#520,#710),#470,.F.);
#730=CARTESIAN_POINT('',(-252.029362138661,-133.370241,1502.88865785629)
);
#740=DIRECTION('',(8.90246263321429E-17,-1.,-7.9133001184127E-17));
#750=DIRECTION('',(1.17705845070759E-12,-8.91795143236012E-19,-1.));
#760=AXIS2_PLACEMENT_3D('',#730,#740,#750);
#770=CONICAL_SURFACE('',#760,50.15,0.00872664625997165);
#780=CARTESIAN_POINT('',(-252.029362138602,-133.370241,1452.73865785629)
);
#790=DIRECTION('',(1.03610828092388E-14,-0.999961923064171,
-0.00872653549837403));
#800=VECTOR('',#790,5746.83962602853);
#810=LINE('',#780,#800);
#820=CARTESIAN_POINT('',(-252.029362138601,-175.870240999999,
1452.36776597518));
#830=VERTEX_POINT('',#820);
#840=EDGE_CURVE('',#650,#830,#810,.T.);
#850=ORIENTED_EDGE('',*,*,#840,.F.);
#860=CARTESIAN_POINT('',(-252.029362138661,-175.870240999999,
1502.88865785629));
#870=DIRECTION('',(8.73607852518561E-17,-1.,-8.64689901081321E-17));
#880=DIRECTION('',(1.17705845070759E-12,8.64689901082349E-17,-1.));
#890=AXIS2_PLACEMENT_3D('',#860,#870,#880);
#900=CIRCLE('',#890,50.5208918811072);
#910=CARTESIAN_POINT('',(-252.02936213872,-175.870240999999,
1553.4095497374));
#920=VERTEX_POINT('',#910);
#930=EDGE_CURVE('',#920,#830,#900,.T.);
#940=ORIENTED_EDGE('',*,*,#930,.T.);
#950=CARTESIAN_POINT('',(-252.02936213872,-133.370241,1553.03865785629))
;
#960=DIRECTION('',(-1.01830403361445E-14,-0.999961923064171,
0.00872653549837388));
#970=VECTOR('',#960,5746.83962602853);
#980=LINE('',#950,#970);
#990=EDGE_CURVE('',#610,#920,#980,.T.);
#1000=ORIENTED_EDGE('',*,*,#990,.T.);
#1010=ORIENTED_EDGE('',*,*,#620,.T.);
#1020=ORIENTED_EDGE('',*,*,#680,.T.);
#1030=EDGE_LOOP('',(#1020,#1010,#1000,#940,#850));
#1040=FACE_OUTER_BOUND('',#1030,.T.);
#1050=ADVANCED_FACE('',(#1040),#770,.F.);
#1060=CARTESIAN_POINT('',(-252.02936213866,-175.870241,1547.10049533499)
);
#1070=DIRECTION('',(6.93842908003226E-30,1.,6.98948117486473E-30));
#1080=DIRECTION('',(3.45955359017354E-12,-6.98948117488873E-30,1.));
#1090=AXIS2_PLACEMENT_3D('',#1060,#1070,#1080);
#1100=PLANE('',#1090);
#1110=EDGE_CURVE('',#830,#920,#900,.T.);
#1120=ORIENTED_EDGE('',*,*,#1110,.F.);
#1130=ORIENTED_EDGE('',*,*,#930,.F.);
#1140=EDGE_LOOP('',(#1130,#1120));
#1150=FACE_BOUND('',#1140,.T.);
#1160=CARTESIAN_POINT('',(-252.029362139019,-175.870241,1502.88865785593
));
#1170=DIRECTION('',(6.77669435370619E-19,-1.,1.10592085109882E-18));
#1180=DIRECTION('',(-1.,1.7946585593778E-29,-2.33824071216304E-12));
#1190=AXIS2_PLACEMENT_3D('',#1160,#1170,#1180);
#1200=CIRCLE('',#1190,52.4999999614046);
#1210=CARTESIAN_POINT('',(-304.529362100424,-175.870241,1502.88865785581
));
#1220=VERTEX_POINT('',#1210);
#1230=CARTESIAN_POINT('',(-199.529362177614,-175.870241,1502.88865785605
));
#1240=VERTEX_POINT('',#1230);
#1250=EDGE_CURVE('',#1220,#1240,#1200,.T.);
#1260=ORIENTED_EDGE('',*,*,#1250,.T.);
#1270=EDGE_CURVE('',#1240,#1220,#1200,.T.);
#1280=ORIENTED_EDGE('',*,*,#1270,.T.);
#1290=EDGE_LOOP('',(#1280,#1260));
#1300=FACE_OUTER_BOUND('',#1290,.T.);
#1310=ADVANCED_FACE('',(#1150,#1300),#1100,.F.);
#1320=CARTESIAN_POINT('',(-252.029362138813,-131.370241,1502.88865785634
));
#1330=DIRECTION('',(0.,-1.,0.));
#1340=DIRECTION('',(1.,-4.53207090900613E-32,-3.45955359017354E-12));
#1350=AXIS2_PLACEMENT_3D('',#1320,#1330,#1340);
#1360=CONICAL_SURFACE('',#1350,40.8,0.00523598775598295);
#1370=CARTESIAN_POINT('',(-292.829362138813,-131.370241,1502.88865785648
));
#1380=DIRECTION('',(-0.00523596383141954,-0.999986292247427,
1.81204198936325E-14));
#1390=VECTOR('',#1380,7792.26161860988);
#1400=LINE('',#1370,#1390);
#1410=CARTESIAN_POINT('',(-292.528290091485,-73.870241000001,
1502.88865785648));
#1420=VERTEX_POINT('',#1410);
#1430=CARTESIAN_POINT('',(-292.829362138813,-131.370240999999,
1502.88865785648));
#1440=VERTEX_POINT('',#1430);
#1450=EDGE_CURVE('',#1420,#1440,#1400,.T.);
#1460=ORIENTED_EDGE('',*,*,#1450,.F.);
#1470=CARTESIAN_POINT('',(-252.02936213861,-131.370241,1502.88865785614)
);
#1480=DIRECTION('',(-6.2454031333637E-18,-1.,7.87268316867905E-30));
#1490=DIRECTION('',(2.46013045396019E-13,6.34929511712093E-30,1.));
#1500=AXIS2_PLACEMENT_3D('',#1470,#1480,#1490);
#1510=CIRCLE('',#1500,40.8);
#1520=CARTESIAN_POINT('',(-280.879318811176,-131.370241,1474.03870118388
));
#1530=VERTEX_POINT('',#1520);
#1540=EDGE_CURVE('',#1440,#1530,#1510,.T.);
#1550=ORIENTED_EDGE('',*,*,#1540,.F.);
#1560=CARTESIAN_POINT('',(-211.229362138813,-131.370241000001,
1502.8886578562));
#1570=VERTEX_POINT('',#1560);
#1580=EDGE_CURVE('',#1530,#1570,#1510,.T.);
#1590=ORIENTED_EDGE('',*,*,#1580,.F.);
#1600=CARTESIAN_POINT('',(-211.229362138813,-131.370241,1502.8886578562)
);
#1610=DIRECTION('',(0.00523596383141954,-0.999986292247427,
-1.81204198936325E-14));
#1620=VECTOR('',#1610,7792.26161860988);
#1630=LINE('',#1600,#1620);
#1640=CARTESIAN_POINT('',(-211.530434186141,-73.8702409999989,
1502.8886578562));
#1650=VERTEX_POINT('',#1640);
#1660=EDGE_CURVE('',#1650,#1570,#1630,.T.);
#1670=ORIENTED_EDGE('',*,*,#1660,.T.);
#1680=CARTESIAN_POINT('',(-252.029362139016,-73.8702409999999,
1502.88865785614));
#1690=DIRECTION('',(6.90728669569172E-30,-1.,-6.24540313335034E-18));
#1700=DIRECTION('',(1.,6.9054202790845E-30,2.98846458326002E-16));
#1710=AXIS2_PLACEMENT_3D('',#1680,#1690,#1700);
#1720=CIRCLE('',#1710,40.4989279526722);
#1730=CARTESIAN_POINT('',(-280.666428724885,-73.8702409999998,
1474.25159127017));
#1740=VERTEX_POINT('',#1730);
#1750=EDGE_CURVE('',#1740,#1650,#1720,.T.);
#1760=ORIENTED_EDGE('',*,*,#1750,.T.);
#1770=EDGE_CURVE('',#1420,#1740,#1720,.T.);
#1780=ORIENTED_EDGE('',*,*,#1770,.T.);
#1790=EDGE_LOOP('',(#1780,#1760,#1670,#1590,#1550,#1460));
#1800=FACE_OUTER_BOUND('',#1790,.T.);
#1810=ADVANCED_FACE('',(#1800),#1360,.T.);
#1820=CARTESIAN_POINT('',(-252.029362139019,-131.870241,1502.88865785593
));
#1830=DIRECTION('',(6.77669435370619E-19,-1.,1.10592085109882E-18));
#1840=DIRECTION('',(6.5645289437468E-21,-2.15092810705859E-18,-1.));
#1850=AXIS2_PLACEMENT_3D('',#1820,#1830,#1840);
#1860=TOROIDAL_SURFACE('',#1850,51.6159987394183,0.5);
#1870=CARTESIAN_POINT('',(-252.029362139019,-131.865877732251,
1502.88865785593));
#1880=DIRECTION('',(6.77669435370619E-19,-1.,1.10592085109882E-18));
#1890=DIRECTION('',(0.,-1.10592085109882E-18,-1.));
#1900=AXIS2_PLACEMENT_3D('',#1870,#1880,#1890);
#1910=CIRCLE('',#1900,52.1159797009504);
#1920=CARTESIAN_POINT('',(-304.14534183997,-131.865877732251,
1502.88865785581));
#1930=VERTEX_POINT('',#1920);
#1940=CARTESIAN_POINT('',(-252.029362139019,-131.865877732251,
1450.77267815498));
#1950=VERTEX_POINT('',#1940);
#1960=EDGE_CURVE('',#1930,#1950,#1910,.T.);
#1970=ORIENTED_EDGE('',*,*,#1960,.F.);
#1980=CARTESIAN_POINT('',(-252.029362139019,-131.870241,1451.27265911651
));
#1990=DIRECTION('',(1.,6.77669435370619E-19,-7.49448758728729E-37));
#2000=DIRECTION('',(-6.77669435370619E-19,1.,0.));
#2010=AXIS2_PLACEMENT_3D('',#1980,#1990,#2000);
#2020=CIRCLE('',#2010,0.5);
#2030=CARTESIAN_POINT('',(-252.029362139019,-131.370241,1451.27265911651
));
#2040=VERTEX_POINT('',#2030);
#2050=EDGE_CURVE('',#1950,#2040,#2020,.T.);
#2060=ORIENTED_EDGE('',*,*,#2050,.F.);
#2070=CARTESIAN_POINT('',(-252.029362139019,-131.370241,1502.88865785593
));
#2080=DIRECTION('',(6.77669435370619E-19,-1.,1.10592085109882E-18));
#2090=DIRECTION('',(0.,-1.10592085109882E-18,-1.));
#2100=AXIS2_PLACEMENT_3D('',#2070,#2080,#2090);
#2110=CIRCLE('',#2100,51.6159987394183);
#2120=CARTESIAN_POINT('',(-303.645360878437,-131.370241,1502.88865785581
));
#2130=VERTEX_POINT('',#2120);
#2140=EDGE_CURVE('',#2130,#2040,#2110,.T.);
#2150=ORIENTED_EDGE('',*,*,#2140,.T.);
#2160=CARTESIAN_POINT('',(-252.029362139019,-131.370241,1554.50465659535
));
#2170=VERTEX_POINT('',#2160);
#2180=EDGE_CURVE('',#2170,#2130,#2110,.T.);
#2190=ORIENTED_EDGE('',*,*,#2180,.T.);
#2200=CARTESIAN_POINT('',(-252.029362139019,-131.870241,1554.50465659535
));
#2210=DIRECTION('',(-1.,-6.77669435370619E-19,7.49448758728729E-37));
#2220=DIRECTION('',(-6.77669435370619E-19,1.,-2.21184170219763E-18));
#2230=AXIS2_PLACEMENT_3D('',#2200,#2210,#2220);
#2240=CIRCLE('',#2230,0.5);
#2250=CARTESIAN_POINT('',(-252.029362139019,-131.865877732251,
1555.00463755688));
#2260=VERTEX_POINT('',#2250);
#2270=EDGE_CURVE('',#2260,#2170,#2240,.T.);
#2280=ORIENTED_EDGE('',*,*,#2270,.T.);
#2290=EDGE_CURVE('',#2260,#1930,#1910,.T.);
#2300=ORIENTED_EDGE('',*,*,#2290,.F.);
#2310=EDGE_LOOP('',(#2300,#2280,#2190,#2150,#2060,#1970));
#2320=FACE_OUTER_BOUND('',#2310,.T.);
#2330=ADVANCED_FACE('',(#2320),#1860,.T.);
#2340=CARTESIAN_POINT('',(-252.029362138814,-73.8702409999999,
1502.88865785593));
#2350=DIRECTION('',(0.,1.,0.));
#2360=DIRECTION('',(-1.,-5.23144447993478E-31,3.21341714561414E-12));
#2370=AXIS2_PLACEMENT_3D('',#2340,#2350,#2360);
#2380=CONICAL_SURFACE('',#2370,38.6010720473277,0.00523598775598282);
#2390=CARTESIAN_POINT('',(-213.428290091486,-73.8702409999999,
1502.88865785581));
#2400=DIRECTION('',(0.00523596383141941,0.999986292247427,
-1.68395350600726E-14));
#2410=VECTOR('',#2400,7372.2953958724);
#2420=LINE('',#2390,#2410);
#2430=CARTESIAN_POINT('',(-213.729362138814,-131.370241,1502.88865785581
));
#2440=VERTEX_POINT('',#2430);
#2450=CARTESIAN_POINT('',(-213.428290091486,-73.8702409999999,
1502.88865785581));
#2460=VERTEX_POINT('',#2450);
#2470=EDGE_CURVE('',#2440,#2460,#2420,.T.);
#2480=ORIENTED_EDGE('',*,*,#2470,.F.);
#2490=CARTESIAN_POINT('',(-252.029362138814,-73.8702409999999,
1502.88865785593));
#2500=DIRECTION('',(-1.95727577257461E-29,-1.,-6.24540313334394E-18));
#2510=DIRECTION('',(-1.,-4.9632778421357E-31,3.21341714561414E-12));
#2520=AXIS2_PLACEMENT_3D('',#2490,#2500,#2510);
#2530=CIRCLE('',#2520,38.6010720473277);
#2540=CARTESIAN_POINT('',(-290.630434186142,-73.8702409999999,
1502.88865785606));
#2550=VERTEX_POINT('',#2540);
#2560=EDGE_CURVE('',#2460,#2550,#2530,.T.);
#2570=ORIENTED_EDGE('',*,*,#2560,.F.);
#2580=CARTESIAN_POINT('',(-290.630434186142,-73.8702409999999,
1502.88865785606));
#2590=DIRECTION('',(-0.00523596383141941,0.999986292247427,
1.68395350600726E-14));
#2600=VECTOR('',#2590,7372.2953958724);
#2610=LINE('',#2580,#2600);
#2620=CARTESIAN_POINT('',(-290.329362138814,-131.370241,1502.88865785606
));
#2630=VERTEX_POINT('',#2620);
#2640=EDGE_CURVE('',#2630,#2550,#2610,.T.);
#2650=ORIENTED_EDGE('',*,*,#2640,.T.);
#2660=CARTESIAN_POINT('',(-252.029362138814,-131.370241,1502.88865785593
));
#2670=DIRECTION('',(1.95727577257461E-29,1.,6.24540313334394E-18));
#2680=DIRECTION('',(-1.,-4.9632778421357E-31,3.21341714561414E-12));
#2690=AXIS2_PLACEMENT_3D('',#2660,#2670,#2680);
#2700=CIRCLE('',#2690,38.3);
#2710=EDGE_CURVE('',#2630,#2440,#2700,.T.);
#2720=ORIENTED_EDGE('',*,*,#2710,.F.);
#2730=EDGE_LOOP('',(#2720,#2650,#2570,#2480));
#2740=FACE_OUTER_BOUND('',#2730,.T.);
#2750=ADVANCED_FACE('',(#2740),#2380,.F.);
#2760=CARTESIAN_POINT('',(-252.02936213862,-73.8702409999999,
1463.33865785614));
#2770=DIRECTION('',(-6.24540313333694E-18,1.,9.01143181981342E-30));
#2780=DIRECTION('',(2.46013045396019E-13,-7.47498117525536E-30,1.));
#2790=AXIS2_PLACEMENT_3D('',#2760,#2770,#2780);
#2800=PLANE('',#2790);
#2810=EDGE_CURVE('',#2550,#2460,#2530,.T.);
#2820=ORIENTED_EDGE('',*,*,#2810,.T.);
#2830=ORIENTED_EDGE('',*,*,#2560,.T.);
#2840=EDGE_LOOP('',(#2830,#2820));
#2850=FACE_BOUND('',#2840,.T.);
#2860=ORIENTED_EDGE('',*,*,#1750,.F.);
#2870=EDGE_CURVE('',#1650,#1420,#1720,.T.);
#2880=ORIENTED_EDGE('',*,*,#2870,.F.);
#2890=ORIENTED_EDGE('',*,*,#1770,.F.);
#2900=EDGE_LOOP('',(#2890,#2880,#2860));
#2910=FACE_OUTER_BOUND('',#2900,.T.);
#2920=ADVANCED_FACE('',(#2850,#2910),#2800,.T.);
#2930=CARTESIAN_POINT('',(-299.479362138814,-131.370241,1502.88865785611
));
#2940=DIRECTION('',(6.24540313335673E-18,1.,-3.64446599985289E-29));
#2950=DIRECTION('',(1.,-6.24540313335673E-18,-3.70580105703539E-12));
#2960=AXIS2_PLACEMENT_3D('',#2930,#2940,#2950);
#2970=PLANE('',#2960);
#2980=EDGE_CURVE('',#220,#110,#200,.T.);
#2990=ORIENTED_EDGE('',*,*,#2980,.T.);
#3000=ORIENTED_EDGE('',*,*,#230,.T.);
#3010=EDGE_LOOP('',(#3000,#2990));
#3020=FACE_BOUND('',#3010,.T.);
#3030=EDGE_CURVE('',#2440,#2630,#2700,.T.);
#3040=ORIENTED_EDGE('',*,*,#3030,.T.);
#3050=ORIENTED_EDGE('',*,*,#2710,.T.);
#3060=EDGE_LOOP('',(#3050,#3040));
#3070=FACE_OUTER_BOUND('',#3060,.T.);
#3080=ADVANCED_FACE('',(#3020,#3070),#2970,.T.);
#3090=CARTESIAN_POINT('',(-299.479362139017,-131.370241,1502.88865785614
));
#3100=DIRECTION('',(6.24540313335028E-18,1.,-6.8546932457919E-30));
#3110=DIRECTION('',(1.,-6.24540313335028E-18,1.23399163377641E-16));
#3120=AXIS2_PLACEMENT_3D('',#3090,#3100,#3110);
#3130=PLANE('',#3120);
#3140=EDGE_CURVE('',#1570,#1440,#1510,.T.);
#3150=ORIENTED_EDGE('',*,*,#3140,.T.);
#3160=ORIENTED_EDGE('',*,*,#1580,.T.);
#3170=ORIENTED_EDGE('',*,*,#1540,.T.);
#3180=EDGE_LOOP('',(#3170,#3160,#3150));
#3190=FACE_BOUND('',#3180,.T.);
#3200=ORIENTED_EDGE('',*,*,#2140,.F.);
#3210=EDGE_CURVE('',#2040,#2170,#2110,.T.);
#3220=ORIENTED_EDGE('',*,*,#3210,.F.);
#3230=ORIENTED_EDGE('',*,*,#2180,.F.);
#3240=EDGE_LOOP('',(#3230,#3220,#3200));
#3250=FACE_OUTER_BOUND('',#3240,.T.);
#3260=ADVANCED_FACE('',(#3190,#3250),#3130,.T.);
#3270=CARTESIAN_POINT('',(-252.029362139019,-175.870245422598,
1502.88865785593));
#3280=DIRECTION('',(0.,-1.,0.));
#3290=DIRECTION('',(-1.,1.7946585593778E-29,-2.33824071216304E-12));
#3300=AXIS2_PLACEMENT_3D('',#3270,#3280,#3290);
#3310=CONICAL_SURFACE('',#3300,52.5,0.00872664625997165);
#3320=CARTESIAN_POINT('',(-199.913382438069,-131.865877732251,
1502.88865785605));
#3330=VERTEX_POINT('',#3320);
#3340=EDGE_CURVE('',#3330,#2260,#1910,.T.);
#3350=ORIENTED_EDGE('',*,*,#3340,.T.);
#3360=CARTESIAN_POINT('',(-199.529362139019,-175.870245422598,
1502.88865785605));
#3370=DIRECTION('',(0.00872653549837395,-0.999961923064171,
2.04087543444115E-14));
#3380=VECTOR('',#3370,6016.13320770684);
#3390=LINE('',#3360,#3380);
#3400=EDGE_CURVE('',#3330,#1240,#3390,.T.);
#3410=ORIENTED_EDGE('',*,*,#3400,.F.);
#3420=ORIENTED_EDGE('',*,*,#1270,.F.);
#3430=CARTESIAN_POINT('',(-304.529362139019,-175.870245422598,
1502.88865785581));
#3440=DIRECTION('',(-0.00872653549837395,-0.999961923064171,
-2.04087543444115E-14));
#3450=VECTOR('',#3440,6016.13320770684);
#3460=LINE('',#3430,#3450);
#3470=EDGE_CURVE('',#1930,#1220,#3460,.T.);
#3480=ORIENTED_EDGE('',*,*,#3470,.T.);
#3490=ORIENTED_EDGE('',*,*,#2290,.T.);
#3500=EDGE_LOOP('',(#3490,#3480,#3420,#3410,#3350));
#3510=FACE_OUTER_BOUND('',#3500,.T.);
#3520=ADVANCED_FACE('',(#3510),#3310,.T.);
#3530=CARTESIAN_POINT('',(-252.029362138814,-73.8702409999999,
1502.88865785593));
#3540=DIRECTION('',(0.,1.,0.));
#3550=DIRECTION('',(-1.,-5.23144447993478E-31,3.21341714561414E-12));
#3560=AXIS2_PLACEMENT_3D('',#3530,#3540,#3550);
#3570=CONICAL_SURFACE('',#3560,38.6010720473277,0.00523598775598282);
#3580=ORIENTED_EDGE('',*,*,#3030,.F.);
#3590=ORIENTED_EDGE('',*,*,#2640,.F.);
#3600=ORIENTED_EDGE('',*,*,#2810,.F.);
#3610=ORIENTED_EDGE('',*,*,#2470,.T.);
#3620=EDGE_LOOP('',(#3610,#3600,#3590,#3580));
#3630=FACE_OUTER_BOUND('',#3620,.T.);
#3640=ADVANCED_FACE('',(#3630),#3570,.F.);
#3650=CARTESIAN_POINT('',(-252.029362138813,-131.370241,1502.88865785634
));
#3660=DIRECTION('',(0.,-1.,0.));
#3670=DIRECTION('',(1.,-4.53207090900613E-32,-3.45955359017354E-12));
#3680=AXIS2_PLACEMENT_3D('',#3650,#3660,#3670);
#3690=CONICAL_SURFACE('',#3680,40.8,0.00523598775598295);
#3700=ORIENTED_EDGE('',*,*,#3140,.F.);
#3710=ORIENTED_EDGE('',*,*,#1450,.T.);
#3720=ORIENTED_EDGE('',*,*,#2870,.T.);
#3730=ORIENTED_EDGE('',*,*,#1660,.F.);
#3740=EDGE_LOOP('',(#3730,#3720,#3710,#3700));
#3750=FACE_OUTER_BOUND('',#3740,.T.);
#3760=ADVANCED_FACE('',(#3750),#3690,.T.);
#3770=CARTESIAN_POINT('',(-252.02936213861,-127.6202386,1502.88865785614
));
#3780=DIRECTION('',(6.24540313333696E-18,-1.,-8.99180471788542E-30));
#3790=DIRECTION('',(-2.46013045396019E-13,7.45535407332735E-30,-1.));
#3800=AXIS2_PLACEMENT_3D('',#3770,#3780,#3790);
#3810=CYLINDRICAL_SURFACE('',#3800,35.);
#3820=ORIENTED_EDGE('',*,*,#2980,.F.);
#3830=ORIENTED_EDGE('',*,*,#140,.F.);
#3840=ORIENTED_EDGE('',*,*,#480,.T.);
#3850=ORIENTED_EDGE('',*,*,#310,.T.);
#3860=EDGE_LOOP('',(#3850,#3840,#3830,#3820));
#3870=FACE_OUTER_BOUND('',#3860,.T.);
#3880=ADVANCED_FACE('',(#3870),#3810,.F.);
#3890=CARTESIAN_POINT('',(-252.029362138661,-133.370241,1502.88865785629
));
#3900=DIRECTION('',(8.90246263321429E-17,-1.,-7.9133001184127E-17));
#3910=DIRECTION('',(1.17705845070759E-12,-8.91795143236012E-19,-1.));
#3920=AXIS2_PLACEMENT_3D('',#3890,#3900,#3910);
#3930=CONICAL_SURFACE('',#3920,50.15,0.00872664625997165);
#3940=ORIENTED_EDGE('',*,*,#660,.T.);
#3950=ORIENTED_EDGE('',*,*,#990,.F.);
#3960=ORIENTED_EDGE('',*,*,#1110,.T.);
#3970=ORIENTED_EDGE('',*,*,#840,.T.);
#3980=EDGE_LOOP('',(#3970,#3960,#3950,#3940));
#3990=FACE_OUTER_BOUND('',#3980,.T.);
#4000=ADVANCED_FACE('',(#3990),#3930,.F.);
#4010=CARTESIAN_POINT('',(-252.029362139019,-175.870245422598,
1502.88865785593));
#4020=DIRECTION('',(0.,-1.,0.));
#4030=DIRECTION('',(-1.,1.7946585593778E-29,-2.33824071216304E-12));
#4040=AXIS2_PLACEMENT_3D('',#4010,#4020,#4030);
#4050=CONICAL_SURFACE('',#4040,52.5,0.00872664625997165);
#4060=ORIENTED_EDGE('',*,*,#1250,.F.);
#4070=ORIENTED_EDGE('',*,*,#3400,.T.);
#4080=EDGE_CURVE('',#1950,#3330,#1910,.T.);
#4090=ORIENTED_EDGE('',*,*,#4080,.T.);
#4100=ORIENTED_EDGE('',*,*,#1960,.T.);
#4110=ORIENTED_EDGE('',*,*,#3470,.F.);
#4120=EDGE_LOOP('',(#4110,#4100,#4090,#4070,#4060));
#4130=FACE_OUTER_BOUND('',#4120,.T.);
#4140=ADVANCED_FACE('',(#4130),#4050,.T.);
#4150=CARTESIAN_POINT('',(-252.029362139019,-131.870241,1502.88865785593
));
#4160=DIRECTION('',(6.77669435370619E-19,-1.,1.10592085109882E-18));
#4170=DIRECTION('',(6.5645289437468E-21,-2.15092810705859E-18,-1.));
#4180=AXIS2_PLACEMENT_3D('',#4150,#4160,#4170);
#4190=TOROIDAL_SURFACE('',#4180,51.6159987394183,0.5);
#4200=ORIENTED_EDGE('',*,*,#4080,.F.);
#4210=ORIENTED_EDGE('',*,*,#3340,.F.);
#4220=ORIENTED_EDGE('',*,*,#2270,.F.);
#4230=ORIENTED_EDGE('',*,*,#3210,.T.);
#4240=ORIENTED_EDGE('',*,*,#2050,.T.);
#4250=EDGE_LOOP('',(#4240,#4230,#4220,#4210,#4200));
#4260=FACE_OUTER_BOUND('',#4250,.T.);
#4270=ADVANCED_FACE('',(#4260),#4190,.T.);
#4280=CLOSED_SHELL('',(#420,#720,#1050,#1310,#1810,#2330,#2750,#2920,
#3080,#3260,#3520,#3640,#3760,#3880,#4000,#4140,#4270));
#4290=MANIFOLD_SOLID_BREP('',#4280);
#4300=CARTESIAN_POINT('',(0.,0.,0.));
#4310=DIRECTION('',(0.,0.,1.));
#4320=DIRECTION('',(1.,0.,0.));
#4330=AXIS2_PLACEMENT_3D('',#4300,#4310,#4320);
#4340=APPLICATION_CONTEXT(' ');
#4350=APPLICATION_PROTOCOL_DEFINITION(' ','automotive_design',1998,#4340
);
#4360=PRODUCT_CONTEXT('',#4340,'mechanical');
#4370=PRODUCT_DEFINITION_CONTEXT('part definition',#4340,'design');
#4380=PRODUCT('Ventiladapter_75-100_gerade.1',
'Ventiladapter_75-100_gerade.1','',(#4360));
#4390=PRODUCT_RELATED_PRODUCT_CATEGORY('part',' ',(#4380));
#4400=PRODUCT_DEFINITION_FORMATION_WITH_SPECIFIED_SOURCE('','',#4380,
.BOUGHT.);
#4410=PRODUCT_DEFINITION('',' ',#4400,#4370);
#4420=PRODUCT_DEFINITION_SHAPE('','',#4410);
#4430=DIMENSIONAL_EXPONENTS(1.,0.,0.,0.,0.,0.,0.);
#4440=DIMENSIONAL_EXPONENTS(0.,0.,0.,0.,0.,0.,0.);
#4450=DIMENSIONAL_EXPONENTS(0.,0.,0.,0.,0.,0.,0.);
#4460=(LENGTH_UNIT() NAMED_UNIT(*) SI_UNIT(.MILLI.,.METRE.));
#4470=(NAMED_UNIT(*) PLANE_ANGLE_UNIT() SI_UNIT($,.RADIAN.));
#4480=(NAMED_UNIT(*) SI_UNIT($,.STERADIAN.) SOLID_ANGLE_UNIT());
#4490=(GEOMETRIC_REPRESENTATION_CONTEXT(3) 
GLOBAL_UNCERTAINTY_ASSIGNED_CONTEXT((#4500)) 
GLOBAL_UNIT_ASSIGNED_CONTEXT((#4460,#4470,#4480)) REPRESENTATION_CONTEXT
('',''));
#4500=UNCERTAINTY_MEASURE_WITH_UNIT(LENGTH_MEASURE(1.E-6),#4460,
'distance_accuracy_value','maximum gap value');
#4510=ADVANCED_BREP_SHAPE_REPRESENTATION('',(#4330,#4290),#4490);
#4520=SHAPE_DEFINITION_REPRESENTATION(#4420,#4510);
#4530=COLOUR_RGB('',0.282352954149246,0.517647087574005,
0.513725519180298);
#4540=FILL_AREA_STYLE_COLOUR('',#4530);
#4550=FILL_AREA_STYLE('',(#4540));
#4560=SURFACE_STYLE_FILL_AREA(#4550);
#4570=SURFACE_SIDE_STYLE('',(#4560));
#4580=SURFACE_STYLE_USAGE(.BOTH.,#4570);
#4590=PRESENTATION_STYLE_ASSIGNMENT((#4580));
#4600=STYLED_ITEM('',(#4590),#4290);
#4610=DRAUGHTING_MODEL('',(#4600),#4490);
#4620=CARTESIAN_POINT('',(285.788088674515,1542.88865785607,
-29.4914936298442));
#4630=DIRECTION('',(1.23399163377737E-16,-1.,6.92174337169243E-30));
#4640=DIRECTION('',(1.,1.23399163377737E-16,1.23399163377737E-16));
#4650=AXIS2_PLACEMENT_3D('',#4620,#4630,#4640);
#4660=ITEM_DEFINED_TRANSFORMATION('Ventiladapter_75-100_gerade.1','',
#4330,#4650);
#4670=APPLICATION_CONTEXT(' ');
#4680=APPLICATION_PROTOCOL_DEFINITION(' ','automotive_design',1998,#4670
);
#4690=PRODUCT_CONTEXT('',#4670,'mechanical');
#4700=PRODUCT_DEFINITION_CONTEXT('part definition',#4670,'design');
#4710=PRODUCT('Ventiladapter_75-100_gerade.1',
'Ventiladapter_75-100_gerade.1','',(#4690));
#4720=PRODUCT_RELATED_PRODUCT_CATEGORY('part',' ',(#4710));
#4730=PRODUCT_DEFINITION_FORMATION_WITH_SPECIFIED_SOURCE('','',#4710,
.BOUGHT.);
#4740=PRODUCT_DEFINITION('',' ',#4730,#4700);
#4750=PRODUCT_DEFINITION_SHAPE('','',#4740);
#4760=DIMENSIONAL_EXPONENTS(1.,0.,0.,0.,0.,0.,0.);
#4770=DIMENSIONAL_EXPONENTS(0.,0.,0.,0.,0.,0.,0.);
#4780=DIMENSIONAL_EXPONENTS(0.,0.,0.,0.,0.,0.,0.);
#4790=(LENGTH_UNIT() NAMED_UNIT(*) SI_UNIT(.MILLI.,.METRE.));
#4800=(NAMED_UNIT(*) PLANE_ANGLE_UNIT() SI_UNIT($,.RADIAN.));
#4810=(NAMED_UNIT(*) SI_UNIT($,.STERADIAN.) SOLID_ANGLE_UNIT());
#4820=(GEOMETRIC_REPRESENTATION_CONTEXT(3) 
GLOBAL_UNCERTAINTY_ASSIGNED_CONTEXT((#4830)) 
GLOBAL_UNIT_ASSIGNED_CONTEXT((#4790,#4800,#4810)) REPRESENTATION_CONTEXT
('',''));
#4830=UNCERTAINTY_MEASURE_WITH_UNIT(LENGTH_MEASURE(1.E-6),#4790,
'distance_accuracy_value','maximum gap value');
#4840=SHAPE_REPRESENTATION('',(#4330,#4650),#4820);
#4850=SHAPE_DEFINITION_REPRESENTATION(#4750,#4840);
#4860=(REPRESENTATION_RELATIONSHIP('','',#4510,#4840) 
REPRESENTATION_RELATIONSHIP_WITH_TRANSFORMATION(#4660) 
SHAPE_REPRESENTATION_RELATIONSHIP());
#4870=NEXT_ASSEMBLY_USAGE_OCCURRENCE('1','',
'Ventiladapter_75-100_gerade.1',#4740,#4410,'');
#4880=PRODUCT_DEFINITION_SHAPE('','',#4870);
#4890=CONTEXT_DEPENDENT_SHAPE_REPRESENTATION(#4860,#4880);
ENDSEC;
END-ISO-10303-21;
