ISO-10303-21;
HEADER;
FILE_DESCRIPTION(('Creo Elements/Direct Modeling STEP Export'),'2;1');
FILE_NAME('0059.0965_MF-A63.stp','2017-07-11T16:46:02',(''),(''),
'PTC Creo Elements/Direct Modeling STEP processor for AP214 (Solid Model
)',
'PTC Creo Elements/Direct Modeling 19.0C  15-Aug-2015 (C) Parametric Tec
hnology GmbH','');
FILE_SCHEMA(('AUTOMOTIVE_DESIGN { 1 0 10303 214 1 1 1 1 }'));
ENDSEC;
DATA;
#10=CARTESIAN_POINT('',(33.7587265354984,40.0000000002117,-7.5));
#20=DIRECTION('',(-5.54667823983524E-32,-1.2611887864488E-18,-1.));
#30=DIRECTION('',(-1.,1.76914038974019E-13,-1.67655219721046E-31));
#40=AXIS2_PLACEMENT_3D('',#10,#20,#30);
#50=CYLINDRICAL_SURFACE('',#40,29.);
#60=CARTESIAN_POINT('',(62.7587265354984,40.0000000002065,-7.5));
#70=DIRECTION('',(-5.54667823983524E-32,-1.2611887864488E-18,-1.));
#80=VECTOR('',#70,1.);
#90=LINE('',#60,#80);
#100=CARTESIAN_POINT('',(62.7587265354984,40.0000000002065,
-5.5000000000001));
#110=VERTEX_POINT('',#100);
#120=CARTESIAN_POINT('',(62.7587265354984,40.0000000002065,
-7.50000000000003));
#130=VERTEX_POINT('',#120);
#140=EDGE_CURVE('',#110,#130,#90,.T.);
#150=ORIENTED_EDGE('',*,*,#140,.T.);
#160=CARTESIAN_POINT('',(33.7587265354984,40.0000000002117,
-5.5000000000001));
#170=DIRECTION('',(-5.54667823983524E-32,-1.2611887864488E-18,-1.));
#180=DIRECTION('',(-1.,1.76914038974019E-13,-1.67655219721046E-31));
#190=AXIS2_PLACEMENT_3D('',#160,#170,#180);
#200=CIRCLE('',#190,29.);
#210=CARTESIAN_POINT('',(4.75872653549835,40.0000000002168,
-5.5000000000001));
#220=VERTEX_POINT('',#210);
#230=EDGE_CURVE('',#110,#220,#200,.T.);
#240=ORIENTED_EDGE('',*,*,#230,.F.);
#250=CARTESIAN_POINT('',(4.75872653549835,40.0000000002168,-7.5));
#260=DIRECTION('',(-5.54667823983524E-32,-1.2611887864488E-18,-1.));
#270=VECTOR('',#260,1.);
#280=LINE('',#250,#270);
#290=CARTESIAN_POINT('',(4.75872653549835,40.0000000002168,
-7.50000000000003));
#300=VERTEX_POINT('',#290);
#310=EDGE_CURVE('',#220,#300,#280,.T.);
#320=ORIENTED_EDGE('',*,*,#310,.F.);
#330=CARTESIAN_POINT('',(33.7587265354984,40.0000000002117,
-7.50000000000003));
#340=DIRECTION('',(-5.54667823983524E-32,-1.2611887864488E-18,-1.));
#350=DIRECTION('',(-1.,1.76914038974019E-13,-1.67655219721046E-31));
#360=AXIS2_PLACEMENT_3D('',#330,#340,#350);
#370=CIRCLE('',#360,29.);
#380=EDGE_CURVE('',#130,#300,#370,.T.);
#390=ORIENTED_EDGE('',*,*,#380,.T.);
#400=EDGE_LOOP('',(#390,#320,#240,#150));
#410=FACE_OUTER_BOUND('',#400,.T.);
#420=ADVANCED_FACE('',(#410),#50,.F.);
#430=CARTESIAN_POINT('',(4.91811719424852,29.7827900644069,
-5.5000000000001));
#440=DIRECTION('',(1.27752443527098E-29,1.26118878959942E-18,1.));
#450=DIRECTION('',(-1.,2.58434385003171E-11,-1.9818210568592E-29));
#460=AXIS2_PLACEMENT_3D('',#430,#440,#450);
#470=PLANE('',#460);
#480=EDGE_CURVE('',#220,#110,#200,.T.);
#490=ORIENTED_EDGE('',*,*,#480,.T.);
#500=ORIENTED_EDGE('',*,*,#230,.T.);
#510=EDGE_LOOP('',(#500,#490));
#520=FACE_BOUND('',#510,.T.);
#530=CARTESIAN_POINT('',(33.7587265354986,40.0000000001381,
-5.50000000000006));
#540=DIRECTION('',(-1.23137962627742E-16,-1.89178317962481E-18,-1.));
#550=DIRECTION('',(0.707106781204919,0.70710678116818,
-8.8409381112647E-17));
#560=AXIS2_PLACEMENT_3D('',#530,#540,#550);
#570=CIRCLE('',#560,50.15);
#580=CARTESIAN_POINT('',(83.9087265356401,39.9999999996761,
-5.50000000000015));
#590=VERTEX_POINT('',#580);
#600=CARTESIAN_POINT('',(-1.70267854117729,4.53859492351237,
-5.50000000000185));
#610=VERTEX_POINT('',#600);
#620=EDGE_CURVE('',#590,#610,#570,.T.);
#630=ORIENTED_EDGE('',*,*,#620,.F.);
#640=CARTESIAN_POINT('',(69.2201316124576,75.4614050758993,
-5.49999999999827));
#650=VERTEX_POINT('',#640);
#660=EDGE_CURVE('',#610,#650,#570,.T.);
#670=ORIENTED_EDGE('',*,*,#660,.F.);
#680=EDGE_CURVE('',#650,#590,#570,.T.);
#690=ORIENTED_EDGE('',*,*,#680,.F.);
#700=EDGE_LOOP('',(#690,#670,#630));
#710=FACE_OUTER_BOUND('',#700,.T.);
#720=ADVANCED_FACE('',(#520,#710),#470,.T.);
#730=CARTESIAN_POINT('',(33.7587265356402,39.9999999999218,
-6.99999999999993));
#740=DIRECTION('',(1.22835143147599E-16,1.89178317964034E-18,1.));
#750=DIRECTION('',(1.,-1.83255504673167E-20,-1.2260290210234E-16));
#760=AXIS2_PLACEMENT_3D('',#730,#740,#750);
#770=TOROIDAL_SURFACE('',#760,51.6159987394183,0.5);
#780=CARTESIAN_POINT('',(33.7587265356402,39.9999999999218,
-7.00436326774912));
#790=DIRECTION('',(1.22835143147599E-16,1.89178317964034E-18,1.));
#800=DIRECTION('',(1.,0.,-1.22835143147599E-16));
#810=AXIS2_PLACEMENT_3D('',#780,#790,#800);
#820=CIRCLE('',#810,52.1159797009504);
#830=CARTESIAN_POINT('',(-3.09283611899769,3.14843734511462,
-7.00436326774908));
#840=VERTEX_POINT('',#830);
#850=CARTESIAN_POINT('',(85.8747062365906,39.9999999999218,
-7.00436326774912));
#860=VERTEX_POINT('',#850);
#870=EDGE_CURVE('',#840,#860,#820,.T.);
#880=ORIENTED_EDGE('',*,*,#870,.F.);
#890=CARTESIAN_POINT('',(85.3747252750585,39.9999999999218,
-6.99999999999994));
#900=DIRECTION('',(-2.32377457675341E-34,1.,-1.89178317964034E-18));
#910=DIRECTION('',(0.,1.89178317964034E-18,1.));
#920=AXIS2_PLACEMENT_3D('',#890,#900,#910);
#930=CIRCLE('',#920,0.5);
#940=CARTESIAN_POINT('',(85.3747252750585,39.9999999999218,
-7.49999999999994));
#950=VERTEX_POINT('',#940);
#960=EDGE_CURVE('',#860,#950,#930,.T.);
#970=ORIENTED_EDGE('',*,*,#960,.F.);
#980=CARTESIAN_POINT('',(33.7587265356402,39.9999999999218,
-7.49999999999993));
#990=DIRECTION('',(1.22835143147599E-16,1.89178317964034E-18,1.));
#1000=DIRECTION('',(1.,0.,-1.22835143147599E-16));
#1010=AXIS2_PLACEMENT_3D('',#980,#990,#1000);
#1020=CIRCLE('',#1010,51.6159987394183);
#1030=CARTESIAN_POINT('',(-2.73929619063497,3.50197727347907,
-7.49999999999992));
#1040=VERTEX_POINT('',#1030);
#1050=EDGE_CURVE('',#1040,#950,#1020,.T.);
#1060=ORIENTED_EDGE('',*,*,#1050,.T.);
#1070=CARTESIAN_POINT('',(-17.8572722037781,39.9999999999218,
-7.49999999999992));
#1080=VERTEX_POINT('',#1070);
#1090=EDGE_CURVE('',#1080,#1040,#1020,.T.);
#1100=ORIENTED_EDGE('',*,*,#1090,.T.);
#1110=CARTESIAN_POINT('',(-17.8572722037781,39.9999999999218,
-6.99999999999992));
#1120=DIRECTION('',(2.32377457675341E-34,-1.,1.89178317964034E-18));
#1130=DIRECTION('',(2.45670286295198E-16,1.89178317964034E-18,1.));
#1140=AXIS2_PLACEMENT_3D('',#1110,#1120,#1130);
#1150=CIRCLE('',#1140,0.5);
#1160=CARTESIAN_POINT('',(-18.3572531653102,39.9999999999218,
-7.00436326774911));
#1170=VERTEX_POINT('',#1160);
#1180=EDGE_CURVE('',#1170,#1080,#1150,.T.);
#1190=ORIENTED_EDGE('',*,*,#1180,.T.);
#1200=EDGE_CURVE('',#1170,#840,#820,.T.);
#1210=ORIENTED_EDGE('',*,*,#1200,.F.);
#1220=EDGE_LOOP('',(#1210,#1190,#1100,#1060,#970,#880));
#1230=FACE_OUTER_BOUND('',#1220,.T.);
#1240=ADVANCED_FACE('',(#1230),#770,.T.);
#1250=CARTESIAN_POINT('',(-2.58656201722925,3.65471144717802,37.));
#1260=DIRECTION('',(-1.23137962627709E-16,-1.89178317963955E-18,-1.));
#1270=DIRECTION('',(0.707106781184266,0.707106781188831,
-8.84093811101298E-17));
#1280=AXIS2_PLACEMENT_3D('',#1250,#1260,#1270);
#1290=PLANE('',#1280);
#1300=CARTESIAN_POINT('',(33.7587265356402,39.9999999997058,
36.9999999999993));
#1310=DIRECTION('',(-2.46054175556888E-16,1.29370357339228E-27,-1.));
#1320=DIRECTION('',(0.707106781192769,0.707106781180327,
-1.73986576076157E-16));
#1330=AXIS2_PLACEMENT_3D('',#1300,#1310,#1320);
#1340=CIRCLE('',#1330,50.5208918811072);
#1350=CARTESIAN_POINT('',(69.4823917766779,75.723665240115,
36.9999999999993));
#1360=VERTEX_POINT('',#1350);
#1370=CARTESIAN_POINT('',(-1.96493870539756,4.2763347592967,
36.9999999999993));
#1380=VERTEX_POINT('',#1370);
#1390=EDGE_CURVE('',#1360,#1380,#1340,.T.);
#1400=ORIENTED_EDGE('',*,*,#1390,.T.);
#1410=EDGE_CURVE('',#1380,#1360,#1340,.T.);
#1420=ORIENTED_EDGE('',*,*,#1410,.T.);
#1430=EDGE_LOOP('',(#1420,#1400));
#1440=FACE_BOUND('',#1430,.T.);
#1450=CARTESIAN_POINT('',(33.7587265356402,39.9999999999218,
36.9999999999997));
#1460=DIRECTION('',(1.22835143147599E-16,1.89178317964034E-18,1.));
#1470=DIRECTION('',(-0.707106781184923,-0.707106781188172,
8.75175859669583E-17));
#1480=AXIS2_PLACEMENT_3D('',#1450,#1460,#1470);
#1490=CIRCLE('',#1480,52.4999999614046);
#1500=CARTESIAN_POINT('',(-3.36437944927723,2.87689401483383,
36.9999999999997));
#1510=VERTEX_POINT('',#1500);
#1520=CARTESIAN_POINT('',(70.8818325205577,77.1231059850098,
36.9999999999996));
#1530=VERTEX_POINT('',#1520);
#1540=EDGE_CURVE('',#1510,#1530,#1490,.T.);
#1550=ORIENTED_EDGE('',*,*,#1540,.T.);
#1560=EDGE_CURVE('',#1530,#1510,#1490,.T.);
#1570=ORIENTED_EDGE('',*,*,#1560,.T.);
#1580=EDGE_LOOP('',(#1570,#1550));
#1590=FACE_OUTER_BOUND('',#1580,.T.);
#1600=ADVANCED_FACE('',(#1440,#1590),#1290,.F.);
#1610=CARTESIAN_POINT('',(33.7587265354979,40.0000000000667,
-7.50000000000004));
#1620=DIRECTION('',(1.23299456005279E-16,0.,1.));
#1630=DIRECTION('',(0.707106781174595,-0.707106781198502,
3.67733725552774E-17));
#1640=AXIS2_PLACEMENT_3D('',#1610,#1620,#1630);
#1650=CONICAL_SURFACE('',#1640,34.7,0.00523598775598299);
#1660=CARTESIAN_POINT('',(9.22212122873939,64.5366053076547,
-7.50000000000004));
#1670=DIRECTION('',(-0.00370238553118158,0.00370238553130687,
0.999986292247427));
#1680=VECTOR('',#1670,6627.2421119059);
#1690=LINE('',#1660,#1680);
#1700=CARTESIAN_POINT('',(9.41649913361065,64.3422274027768,-60.));
#1710=VERTEX_POINT('',#1700);
#1720=CARTESIAN_POINT('',(9.2221212287394,64.5366053076547,
-7.50000000000062));
#1730=VERTEX_POINT('',#1720);
#1740=EDGE_CURVE('',#1710,#1730,#1690,.T.);
#1750=ORIENTED_EDGE('',*,*,#1740,.T.);
#1760=CARTESIAN_POINT('',(33.7587265356426,40.0000000001401,
-59.9999999999997));
#1770=DIRECTION('',(1.22976469250143E-16,-6.30594393203803E-19,1.));
#1780=DIRECTION('',(-0.707106781191336,-0.707106781181761,
2.10024954202265E-16));
#1790=AXIS2_PLACEMENT_3D('',#1760,#1770,#1780);
#1800=CIRCLE('',#1790,34.4251081307008);
#1810=CARTESIAN_POINT('',(58.100953937385,15.6577725973565,
-59.9999999999994));
#1820=VERTEX_POINT('',#1810);
#1830=EDGE_CURVE('',#1820,#1710,#1800,.T.);
#1840=ORIENTED_EDGE('',*,*,#1830,.T.);
#1850=CARTESIAN_POINT('',(58.2953318422563,15.4633946924786,
-7.50000000000004));
#1860=DIRECTION('',(0.00370238553118182,-0.00370238553130687,
0.999986292247427));
#1870=VECTOR('',#1860,6627.2421119059);
#1880=LINE('',#1850,#1870);
#1890=CARTESIAN_POINT('',(58.2953318422563,15.4633946924786,
-7.49999999999956));
#1900=VERTEX_POINT('',#1890);
#1910=EDGE_CURVE('',#1820,#1900,#1880,.T.);
#1920=ORIENTED_EDGE('',*,*,#1910,.F.);
#1930=CARTESIAN_POINT('',(33.758726535641,40.0000000000667,
-7.50000000000009));
#1940=DIRECTION('',(-1.23137962627711E-16,-6.30594393199477E-19,-1.));
#1950=DIRECTION('',(-0.707106781190689,-0.707106781182408,
2.10916749345405E-16));
#1960=AXIS2_PLACEMENT_3D('',#1930,#1940,#1950);
#1970=CIRCLE('',#1960,34.7);
#1980=CARTESIAN_POINT('',(68.4587265354978,39.9999999995276,
-7.50000000000004));
#1990=VERTEX_POINT('',#1980);
#2000=EDGE_CURVE('',#1990,#1900,#1970,.T.);
#2010=ORIENTED_EDGE('',*,*,#2000,.T.);
#2020=EDGE_CURVE('',#1730,#1990,#1970,.T.);
#2030=ORIENTED_EDGE('',*,*,#2020,.T.);
#2040=EDGE_LOOP('',(#2030,#2010,#1920,#1840,#1750));
#2050=FACE_OUTER_BOUND('',#2040,.T.);
#2060=ADVANCED_FACE('',(#2050),#1650,.T.);
#2070=CARTESIAN_POINT('',(33.7587265357837,39.99999999985,
-7.50000000000002));
#2080=DIRECTION('',(-2.46102784034733E-16,0.,-1.));
#2090=DIRECTION('',(-1.,-1.2241319069517E-12,1.23768557020909E-16));
#2100=AXIS2_PLACEMENT_3D('',#2070,#2080,#2090);
#2110=CONICAL_SURFACE('',#2100,32.2,0.00523598775598299);
#2120=CARTESIAN_POINT('',(33.7587265357837,39.99999999985,
-7.50000000000002));
#2130=DIRECTION('',(-2.4627592525541E-16,-1.46579253986407E-28,-1.));
#2140=DIRECTION('',(-1.,-1.2241319069517E-12,2.4627592525541E-16));
#2150=AXIS2_PLACEMENT_3D('',#2120,#2130,#2140);
#2160=CIRCLE('',#2150,32.2);
#2170=CARTESIAN_POINT('',(10.9894629742896,17.2315868608712,
-7.50000000000002));
#2180=VERTEX_POINT('',#2170);
#2190=CARTESIAN_POINT('',(1.55872653578366,39.9999999998106,
-7.50000000000001));
#2200=VERTEX_POINT('',#2190);
#2210=EDGE_CURVE('',#2180,#2200,#2160,.T.);
#2220=ORIENTED_EDGE('',*,*,#2210,.F.);
#2230=CARTESIAN_POINT('',(1.55872653578366,39.9999999998106,
-7.50000000000002));
#2240=DIRECTION('',(-0.00523596383141983,-6.40898324012685E-15,
-0.999986292247427));
#2250=VECTOR('',#2240,6149.77510096167);
#2260=LINE('',#2230,#2250);
#2270=CARTESIAN_POINT('',(1.28383466648438,39.9999999998102,
-60.0000000000006));
#2280=VERTEX_POINT('',#2270);
#2290=EDGE_CURVE('',#2200,#2280,#2260,.T.);
#2300=ORIENTED_EDGE('',*,*,#2290,.F.);
#2310=CARTESIAN_POINT('',(33.7587265357837,39.99999999985,
-60.0000000000006));
#2320=DIRECTION('',(-2.4627592525541E-16,-1.46579253986407E-28,-1.));
#2330=DIRECTION('',(-1.,-1.2241319069517E-12,2.4627592525541E-16));
#2340=AXIS2_PLACEMENT_3D('',#2310,#2320,#2330);
#2350=CIRCLE('',#2340,32.4748918692993);
#2360=CARTESIAN_POINT('',(66.233618405083,39.9999999998897,
-60.0000000000006));
#2370=VERTEX_POINT('',#2360);
#2380=EDGE_CURVE('',#2370,#2280,#2350,.T.);
#2390=ORIENTED_EDGE('',*,*,#2380,.T.);
#2400=CARTESIAN_POINT('',(65.9587265357837,39.9999999998894,
-7.50000000000002));
#2410=DIRECTION('',(0.00523596383141934,6.41013863642037E-15,
-0.999986292247427));
#2420=VECTOR('',#2410,6149.77510096167);
#2430=LINE('',#2400,#2420);
#2440=CARTESIAN_POINT('',(65.9587265357837,39.9999999998894,
-7.50000000000003));
#2450=VERTEX_POINT('',#2440);
#2460=EDGE_CURVE('',#2450,#2370,#2430,.T.);
#2470=ORIENTED_EDGE('',*,*,#2460,.T.);
#2480=EDGE_CURVE('',#2450,#2180,#2160,.T.);
#2490=ORIENTED_EDGE('',*,*,#2480,.F.);
#2500=EDGE_LOOP('',(#2490,#2470,#2390,#2300,#2220));
#2510=FACE_OUTER_BOUND('',#2500,.T.);
#2520=ADVANCED_FACE('',(#2510),#2110,.F.);
#2530=CARTESIAN_POINT('',(9.57392488470643,64.1848016514483,-60.));
#2540=DIRECTION('',(-3.58815774105893E-17,-8.78869796103842E-17,-1.));
#2550=DIRECTION('',(0.707106781186345,-0.707106781186752,
3.6773372553834E-17));
#2560=AXIS2_PLACEMENT_3D('',#2530,#2540,#2550);
#2570=PLANE('',#2560);
#2580=EDGE_CURVE('',#2280,#2370,#2350,.T.);
#2590=ORIENTED_EDGE('',*,*,#2580,.F.);
#2600=ORIENTED_EDGE('',*,*,#2380,.F.);
#2610=EDGE_LOOP('',(#2600,#2590));
#2620=FACE_BOUND('',#2610,.T.);
#2630=CARTESIAN_POINT('',(-0.666381595202907,40.0000000004681,
-59.9999999999997));
#2640=VERTEX_POINT('',#2630);
#2650=EDGE_CURVE('',#2640,#1820,#1800,.T.);
#2660=ORIENTED_EDGE('',*,*,#2650,.F.);
#2670=ORIENTED_EDGE('',*,*,#1830,.F.);
#2680=EDGE_CURVE('',#1710,#2640,#1800,.T.);
#2690=ORIENTED_EDGE('',*,*,#2680,.F.);
#2700=EDGE_LOOP('',(#2690,#2670,#2660));
#2710=FACE_OUTER_BOUND('',#2700,.T.);
#2720=ADVANCED_FACE('',(#2620,#2710),#2570,.T.);
#2730=CARTESIAN_POINT('',(33.7587265356401,39.9999999997058,
-5.50000000000014));
#2740=DIRECTION('',(2.46054175556895E-16,0.,1.));
#2750=DIRECTION('',(0.70710678119277,0.707106781180328,
-8.66257908246862E-17));
#2760=AXIS2_PLACEMENT_3D('',#2730,#2740,#2750);
#2770=CONICAL_SURFACE('',#2760,50.15,0.00872664625997165);
#2780=CARTESIAN_POINT('',(69.2201316124576,75.4614050758993,
-5.50000000000014));
#2790=DIRECTION('',(0.00617059242721989,0.00617059242711107,
0.999961923064171));
#2800=VECTOR('',#2790,5746.83962602853);
#2810=LINE('',#2780,#2800);
#2820=EDGE_CURVE('',#650,#1360,#2810,.T.);
#2830=ORIENTED_EDGE('',*,*,#2820,.T.);
#2840=ORIENTED_EDGE('',*,*,#660,.T.);
#2850=CARTESIAN_POINT('',(-1.7026785411773,4.53859492351236,
-5.50000000000013));
#2860=DIRECTION('',(-0.0061705924272194,-0.00617059242711107,
0.999961923064171));
#2870=VECTOR('',#2860,5746.83962602853);
#2880=LINE('',#2850,#2870);
#2890=EDGE_CURVE('',#610,#1380,#2880,.T.);
#2900=ORIENTED_EDGE('',*,*,#2890,.F.);
#2910=ORIENTED_EDGE('',*,*,#1410,.F.);
#2920=EDGE_LOOP('',(#2910,#2900,#2840,#2830));
#2930=FACE_OUTER_BOUND('',#2920,.T.);
#2940=ADVANCED_FACE('',(#2930),#2770,.F.);
#2950=COLOUR_RGB('',0.800000071525574,0.756862819194794,
0.533333361148834);
#2960=FILL_AREA_STYLE_COLOUR('',#2950);
#2970=FILL_AREA_STYLE('',(#2960));
#2980=SURFACE_STYLE_FILL_AREA(#2970);
#2990=SURFACE_SIDE_STYLE('',(#2980));
#3000=SURFACE_STYLE_USAGE(.BOTH.,#2990);
#3010=PRESENTATION_STYLE_ASSIGNMENT((#3000));
#3020=CARTESIAN_POINT('',(75.6232025536755,1.01177311453951,
-7.50000000000003));
#3030=DIRECTION('',(6.77331016839607E-30,-9.137599658235E-28,-1.));
#3040=DIRECTION('',(7.48606732159376E-12,1.,-9.13759965823452E-28));
#3050=AXIS2_PLACEMENT_3D('',#3020,#3030,#3040);
#3060=PLANE('',#3050);
#3070=EDGE_CURVE('',#300,#130,#370,.T.);
#3080=ORIENTED_EDGE('',*,*,#3070,.F.);
#3090=ORIENTED_EDGE('',*,*,#380,.F.);
#3100=EDGE_LOOP('',(#3090,#3080));
#3110=FACE_BOUND('',#3100,.T.);
#3120=EDGE_CURVE('',#2200,#2450,#2160,.T.);
#3130=ORIENTED_EDGE('',*,*,#3120,.T.);
#3140=ORIENTED_EDGE('',*,*,#2210,.T.);
#3150=ORIENTED_EDGE('',*,*,#2480,.T.);
#3160=EDGE_LOOP('',(#3150,#3140,#3130));
#3170=FACE_OUTER_BOUND('',#3160,.T.);
#3180=ADVANCED_FACE('',(#3110,#3170),#3060,.T.);
#3190=CARTESIAN_POINT('',(33.7587265356402,39.9999999999218,
37.0000044225979));
#3200=DIRECTION('',(1.22835143147599E-16,2.36221429129998E-18,1.));
#3210=DIRECTION('',(-0.707106781184925,-0.707106781188173,
8.75175859669585E-17));
#3220=AXIS2_PLACEMENT_3D('',#3190,#3200,#3210);
#3230=CONICAL_SURFACE('',#3220,52.5,0.00872664625997165);
#3240=CARTESIAN_POINT('',(70.6102891902782,76.851562654729,
-7.00436326774912));
#3250=VERTEX_POINT('',#3240);
#3260=EDGE_CURVE('',#3250,#1170,#820,.T.);
#3270=ORIENTED_EDGE('',*,*,#3260,.T.);
#3280=CARTESIAN_POINT('',(70.8818325478488,77.1231060123009,
37.0000044225979));
#3290=DIRECTION('',(0.0061705924271513,0.00617059242717952,
0.999961923064171));
#3300=VECTOR('',#3290,6016.13320770684);
#3310=LINE('',#3280,#3300);
#3320=EDGE_CURVE('',#3250,#1530,#3310,.T.);
#3330=ORIENTED_EDGE('',*,*,#3320,.F.);
#3340=ORIENTED_EDGE('',*,*,#1560,.F.);
#3350=CARTESIAN_POINT('',(-3.36437947656832,2.87689398754274,
37.0000044225979));
#3360=DIRECTION('',(-0.00617059242715105,-0.00617059242717952,
0.999961923064171));
#3370=VECTOR('',#3360,6016.13320770684);
#3380=LINE('',#3350,#3370);
#3390=EDGE_CURVE('',#840,#1510,#3380,.T.);
#3400=ORIENTED_EDGE('',*,*,#3390,.T.);
#3410=ORIENTED_EDGE('',*,*,#1200,.T.);
#3420=EDGE_LOOP('',(#3410,#3400,#3340,#3330,#3270));
#3430=FACE_OUTER_BOUND('',#3420,.T.);
#3440=ADVANCED_FACE('',(#3430),#3230,.T.);
#3450=CARTESIAN_POINT('',(64.4378654317847,9.32086110347268,
-7.50000000000007));
#3460=DIRECTION('',(1.23137962627708E-16,6.30594393209423E-19,1.));
#3470=DIRECTION('',(0.707106781193417,0.707106781179681,
-8.75175859680059E-17));
#3480=AXIS2_PLACEMENT_3D('',#3450,#3460,#3470);
#3490=PLANE('',#3480);
#3500=ORIENTED_EDGE('',*,*,#2000,.F.);
#3510=EDGE_CURVE('',#1900,#1730,#1970,.T.);
#3520=ORIENTED_EDGE('',*,*,#3510,.F.);
#3530=ORIENTED_EDGE('',*,*,#2020,.F.);
#3540=EDGE_LOOP('',(#3530,#3520,#3500));
#3550=FACE_BOUND('',#3540,.T.);
#3560=ORIENTED_EDGE('',*,*,#1050,.F.);
#3570=EDGE_CURVE('',#950,#1080,#1020,.T.);
#3580=ORIENTED_EDGE('',*,*,#3570,.F.);
#3590=ORIENTED_EDGE('',*,*,#1090,.F.);
#3600=EDGE_LOOP('',(#3590,#3580,#3560));
#3610=FACE_OUTER_BOUND('',#3600,.T.);
#3620=ADVANCED_FACE('',(#3550,#3610),#3490,.F.);
#3630=CARTESIAN_POINT('',(33.7587265354979,40.0000000000667,
-7.50000000000004));
#3640=DIRECTION('',(1.23299456005279E-16,0.,1.));
#3650=DIRECTION('',(0.707106781174595,-0.707106781198502,
3.67733725552774E-17));
#3660=AXIS2_PLACEMENT_3D('',#3630,#3640,#3650);
#3670=CONICAL_SURFACE('',#3660,34.7,0.00523598775598299);
#3680=ORIENTED_EDGE('',*,*,#1740,.F.);
#3690=ORIENTED_EDGE('',*,*,#3510,.T.);
#3700=ORIENTED_EDGE('',*,*,#1910,.T.);
#3710=ORIENTED_EDGE('',*,*,#2650,.T.);
#3720=ORIENTED_EDGE('',*,*,#2680,.T.);
#3730=EDGE_LOOP('',(#3720,#3710,#3700,#3690,#3680));
#3740=FACE_OUTER_BOUND('',#3730,.T.);
#3750=ADVANCED_FACE('',(#3740),#3670,.T.);
#3760=CARTESIAN_POINT('',(33.7587265354984,40.0000000002117,-7.5));
#3770=DIRECTION('',(-5.54667823983524E-32,-1.2611887864488E-18,-1.));
#3780=DIRECTION('',(-1.,1.76914038974019E-13,-1.67655219721046E-31));
#3790=AXIS2_PLACEMENT_3D('',#3760,#3770,#3780);
#3800=CYLINDRICAL_SURFACE('',#3790,29.);
#3810=ORIENTED_EDGE('',*,*,#480,.F.);
#3820=ORIENTED_EDGE('',*,*,#140,.F.);
#3830=ORIENTED_EDGE('',*,*,#3070,.T.);
#3840=ORIENTED_EDGE('',*,*,#310,.T.);
#3850=EDGE_LOOP('',(#3840,#3830,#3820,#3810));
#3860=FACE_OUTER_BOUND('',#3850,.T.);
#3870=ADVANCED_FACE('',(#3860),#3800,.F.);
#3880=CARTESIAN_POINT('',(33.7587265357837,39.99999999985,
-7.50000000000002));
#3890=DIRECTION('',(-2.46102784034733E-16,0.,-1.));
#3900=DIRECTION('',(-1.,-1.2241319069517E-12,1.23768557020909E-16));
#3910=AXIS2_PLACEMENT_3D('',#3880,#3890,#3900);
#3920=CONICAL_SURFACE('',#3910,32.2,0.00523598775598299);
#3930=ORIENTED_EDGE('',*,*,#3120,.F.);
#3940=ORIENTED_EDGE('',*,*,#2460,.F.);
#3950=ORIENTED_EDGE('',*,*,#2580,.T.);
#3960=ORIENTED_EDGE('',*,*,#2290,.T.);
#3970=EDGE_LOOP('',(#3960,#3950,#3940,#3930));
#3980=FACE_OUTER_BOUND('',#3970,.T.);
#3990=ADVANCED_FACE('',(#3980),#3920,.F.);
#4000=CARTESIAN_POINT('',(33.7587265356402,39.9999999999218,
37.0000044225979));
#4010=DIRECTION('',(1.22835143147599E-16,2.36221429129998E-18,1.));
#4020=DIRECTION('',(-0.707106781184925,-0.707106781188173,
8.75175859669585E-17));
#4030=AXIS2_PLACEMENT_3D('',#4000,#4010,#4020);
#4040=CONICAL_SURFACE('',#4030,52.5,0.00872664625997165);
#4050=ORIENTED_EDGE('',*,*,#1540,.F.);
#4060=ORIENTED_EDGE('',*,*,#3320,.T.);
#4070=EDGE_CURVE('',#860,#3250,#820,.T.);
#4080=ORIENTED_EDGE('',*,*,#4070,.T.);
#4090=ORIENTED_EDGE('',*,*,#870,.T.);
#4100=ORIENTED_EDGE('',*,*,#3390,.F.);
#4110=EDGE_LOOP('',(#4100,#4090,#4080,#4060,#4050));
#4120=FACE_OUTER_BOUND('',#4110,.T.);
#4130=ADVANCED_FACE('',(#4120),#4040,.T.);
#4140=CARTESIAN_POINT('',(33.7587265356401,39.9999999997058,
-5.50000000000014));
#4150=DIRECTION('',(2.46054175556895E-16,0.,1.));
#4160=DIRECTION('',(0.70710678119277,0.707106781180328,
-8.66257908246862E-17));
#4170=AXIS2_PLACEMENT_3D('',#4140,#4150,#4160);
#4180=CONICAL_SURFACE('',#4170,50.15,0.00872664625997165);
#4190=ORIENTED_EDGE('',*,*,#2820,.F.);
#4200=ORIENTED_EDGE('',*,*,#1390,.F.);
#4210=ORIENTED_EDGE('',*,*,#2890,.T.);
#4220=ORIENTED_EDGE('',*,*,#620,.T.);
#4230=ORIENTED_EDGE('',*,*,#680,.T.);
#4240=EDGE_LOOP('',(#4230,#4220,#4210,#4200,#4190));
#4250=FACE_OUTER_BOUND('',#4240,.T.);
#4260=ADVANCED_FACE('',(#4250),#4180,.F.);
#4270=COLOUR_RGB('',0.800000071525574,0.756862819194794,
0.533333361148834);
#4280=FILL_AREA_STYLE_COLOUR('',#4270);
#4290=FILL_AREA_STYLE('',(#4280));
#4300=SURFACE_STYLE_FILL_AREA(#4290);
#4310=SURFACE_SIDE_STYLE('',(#4300));
#4320=SURFACE_STYLE_USAGE(.BOTH.,#4310);
#4330=PRESENTATION_STYLE_ASSIGNMENT((#4320));
#4340=CARTESIAN_POINT('',(33.7587265356402,39.9999999999218,
-6.99999999999993));
#4350=DIRECTION('',(1.22835143147599E-16,1.89178317964034E-18,1.));
#4360=DIRECTION('',(1.,-1.83255504673167E-20,-1.2260290210234E-16));
#4370=AXIS2_PLACEMENT_3D('',#4340,#4350,#4360);
#4380=TOROIDAL_SURFACE('',#4370,51.6159987394183,0.5);
#4390=ORIENTED_EDGE('',*,*,#4070,.F.);
#4400=ORIENTED_EDGE('',*,*,#3260,.F.);
#4410=ORIENTED_EDGE('',*,*,#1180,.F.);
#4420=ORIENTED_EDGE('',*,*,#3570,.T.);
#4430=ORIENTED_EDGE('',*,*,#960,.T.);
#4440=EDGE_LOOP('',(#4430,#4420,#4410,#4400,#4390));
#4450=FACE_OUTER_BOUND('',#4440,.T.);
#4460=ADVANCED_FACE('',(#4450),#4380,.T.);
#4470=CLOSED_SHELL('',(#420,#720,#1240,#1600,#2060,#2520,#2720,#2940,
#3180,#3440,#3620,#3750,#3870,#3990,#4130,#4260,#4460));
#4480=MANIFOLD_SOLID_BREP('',#4470);
#4490=CARTESIAN_POINT('',(0.,0.,0.));
#4500=DIRECTION('',(0.,0.,1.));
#4510=DIRECTION('',(1.,0.,0.));
#4520=AXIS2_PLACEMENT_3D('',#4490,#4500,#4510);
#4530=APPLICATION_CONTEXT(' ');
#4540=APPLICATION_PROTOCOL_DEFINITION(' ','automotive_design',1998,#4530
);
#4550=PRODUCT_CONTEXT('',#4530,'mechanical');
#4560=PRODUCT_DEFINITION_CONTEXT('part definition',#4530,'design');
#4570=PRODUCT('Ventiladapter_63-100_gerade.1',
'Ventiladapter_63-100_gerade.1','',(#4550));
#4580=PRODUCT_RELATED_PRODUCT_CATEGORY('part',' ',(#4570));
#4590=PRODUCT_DEFINITION_FORMATION_WITH_SPECIFIED_SOURCE('','',#4570,
.BOUGHT.);
#4600=PRODUCT_DEFINITION('',' ',#4590,#4560);
#4610=PRODUCT_DEFINITION_SHAPE('','',#4600);
#4620=DIMENSIONAL_EXPONENTS(1.,0.,0.,0.,0.,0.,0.);
#4630=DIMENSIONAL_EXPONENTS(0.,0.,0.,0.,0.,0.,0.);
#4640=DIMENSIONAL_EXPONENTS(0.,0.,0.,0.,0.,0.,0.);
#4650=(LENGTH_UNIT() NAMED_UNIT(*) SI_UNIT(.MILLI.,.METRE.));
#4660=(NAMED_UNIT(*) PLANE_ANGLE_UNIT() SI_UNIT($,.RADIAN.));
#4670=(NAMED_UNIT(*) SI_UNIT($,.STERADIAN.) SOLID_ANGLE_UNIT());
#4680=(GEOMETRIC_REPRESENTATION_CONTEXT(3) 
GLOBAL_UNCERTAINTY_ASSIGNED_CONTEXT((#4690)) 
GLOBAL_UNIT_ASSIGNED_CONTEXT((#4650,#4660,#4670)) REPRESENTATION_CONTEXT
('',''));
#4690=UNCERTAINTY_MEASURE_WITH_UNIT(LENGTH_MEASURE(1.E-6),#4650,
'distance_accuracy_value','maximum gap value');
#4700=ADVANCED_BREP_SHAPE_REPRESENTATION('',(#4520,#4480),#4680);
#4710=SHAPE_DEFINITION_REPRESENTATION(#4610,#4700);
#4720=COLOUR_RGB('',0.38039219379425,0.0941176563501358,
0.0941176563501358);
#4730=FILL_AREA_STYLE_COLOUR('',#4720);
#4740=FILL_AREA_STYLE('',(#4730));
#4750=SURFACE_STYLE_FILL_AREA(#4740);
#4760=SURFACE_SIDE_STYLE('',(#4750));
#4770=SURFACE_STYLE_USAGE(.BOTH.,#4760);
#4780=PRESENTATION_STYLE_ASSIGNMENT((#4770));
#4790=STYLED_ITEM('',(#4780),#4480);
#4800=OVER_RIDING_STYLED_ITEM('',(#3010),#2940,#4790);
#4810=OVER_RIDING_STYLED_ITEM('',(#4330),#4260,#4790);
#4820=DRAUGHTING_MODEL('',(#4790,#4800,#4810),#4680);
#4830=CARTESIAN_POINT('',(-18.396569169484,44.4132467899713,
-168.361734629844));
#4840=DIRECTION('',(3.58815774105587E-17,-8.66257908239313E-17,-1.));
#4850=DIRECTION('',(0.707106781186577,0.707106781186518,
-3.58815774105696E-17));
#4860=AXIS2_PLACEMENT_3D('',#4830,#4840,#4850);
#4870=ITEM_DEFINED_TRANSFORMATION('Ventiladapter_63-100_gerade.1','',
#4520,#4860);
#4880=APPLICATION_CONTEXT(' ');
#4890=APPLICATION_PROTOCOL_DEFINITION(' ','automotive_design',1998,#4880
);
#4900=PRODUCT_CONTEXT('',#4880,'mechanical');
#4910=PRODUCT_DEFINITION_CONTEXT('part definition',#4880,'design');
#4920=PRODUCT('Ventiladapter_63-100_gerade.1',
'Ventiladapter_63-100_gerade.1','',(#4900));
#4930=PRODUCT_RELATED_PRODUCT_CATEGORY('part',' ',(#4920));
#4940=PRODUCT_DEFINITION_FORMATION_WITH_SPECIFIED_SOURCE('','',#4920,
.BOUGHT.);
#4950=PRODUCT_DEFINITION('',' ',#4940,#4910);
#4960=PRODUCT_DEFINITION_SHAPE('','',#4950);
#4970=DIMENSIONAL_EXPONENTS(1.,0.,0.,0.,0.,0.,0.);
#4980=DIMENSIONAL_EXPONENTS(0.,0.,0.,0.,0.,0.,0.);
#4990=DIMENSIONAL_EXPONENTS(0.,0.,0.,0.,0.,0.,0.);
#5000=(LENGTH_UNIT() NAMED_UNIT(*) SI_UNIT(.MILLI.,.METRE.));
#5010=(NAMED_UNIT(*) PLANE_ANGLE_UNIT() SI_UNIT($,.RADIAN.));
#5020=(NAMED_UNIT(*) SI_UNIT($,.STERADIAN.) SOLID_ANGLE_UNIT());
#5030=(GEOMETRIC_REPRESENTATION_CONTEXT(3) 
GLOBAL_UNCERTAINTY_ASSIGNED_CONTEXT((#5040)) 
GLOBAL_UNIT_ASSIGNED_CONTEXT((#5000,#5010,#5020)) REPRESENTATION_CONTEXT
('',''));
#5040=UNCERTAINTY_MEASURE_WITH_UNIT(LENGTH_MEASURE(1.E-6),#5000,
'distance_accuracy_value','maximum gap value');
#5050=SHAPE_REPRESENTATION('',(#4520,#4860),#5030);
#5060=SHAPE_DEFINITION_REPRESENTATION(#4960,#5050);
#5070=(REPRESENTATION_RELATIONSHIP('','',#4700,#5050) 
REPRESENTATION_RELATIONSHIP_WITH_TRANSFORMATION(#4870) 
SHAPE_REPRESENTATION_RELATIONSHIP());
#5080=NEXT_ASSEMBLY_USAGE_OCCURRENCE('1','',
'Ventiladapter_63-100_gerade.1',#4950,#4600,'');
#5090=PRODUCT_DEFINITION_SHAPE('','',#5080);
#5100=CONTEXT_DEPENDENT_SHAPE_REPRESENTATION(#5070,#5090);
ENDSEC;
END-ISO-10303-21;
