ISO-10303-21;
HEADER;
FILE_DESCRIPTION(('Creo Elements/Direct Modeling STEP Export'),'2;1');
FILE_NAME('0059.0869_PP 45 DFHL.stp','2018-02-23T15:05:34',(''),(''),
'PTC Creo Elements/Direct Modeling STEP processor for AP214 (Solid Model
)',
'PTC Creo Elements/Direct Modeling 19.0C  15-Aug-2015 (C) Parametric Tec
hnology GmbH','');
FILE_SCHEMA(('AUTOMOTIVE_DESIGN { 1 0 10303 214 1 1 1 1 }'));
ENDSEC;
DATA;
#10=CARTESIAN_POINT('',(0.,0.,0.));
#20=DIRECTION('',(0.,0.,1.));
#30=DIRECTION('',(1.,0.,0.));
#40=AXIS2_PLACEMENT_3D('',#10,#20,#30);
#50=CYLINDRICAL_SURFACE('',#40,80.);
#60=CARTESIAN_POINT('',(-80.,9.79717439317883E-15,0.));
#70=DIRECTION('',(0.,0.,1.));
#80=VECTOR('',#70,1.);
#90=LINE('',#60,#80);
#100=CARTESIAN_POINT('',(-80.,9.79717439317883E-15,117.171047450425));
#110=VERTEX_POINT('',#100);
#120=CARTESIAN_POINT('',(-80.,9.79717439317883E-15,2357.17104745043));
#130=VERTEX_POINT('',#120);
#140=EDGE_CURVE('',#110,#130,#90,.T.);
#150=ORIENTED_EDGE('',*,*,#140,.F.);
#160=CARTESIAN_POINT('',(0.,0.,2357.17104745043));
#170=DIRECTION('',(0.,0.,1.));
#180=DIRECTION('',(1.,0.,0.));
#190=AXIS2_PLACEMENT_3D('',#160,#170,#180);
#200=CIRCLE('',#190,80.);
#210=CARTESIAN_POINT('',(80.,0.,2357.17104745043));
#220=VERTEX_POINT('',#210);
#230=EDGE_CURVE('',#130,#220,#200,.T.);
#240=ORIENTED_EDGE('',*,*,#230,.F.);
#250=CARTESIAN_POINT('',(80.,0.,0.));
#260=DIRECTION('',(0.,0.,1.));
#270=VECTOR('',#260,1.);
#280=LINE('',#250,#270);
#290=CARTESIAN_POINT('',(80.,0.,117.171047450425));
#300=VERTEX_POINT('',#290);
#310=EDGE_CURVE('',#300,#220,#280,.T.);
#320=ORIENTED_EDGE('',*,*,#310,.T.);
#330=CARTESIAN_POINT('',(0.,0.,117.171047450425));
#340=DIRECTION('',(0.,0.,1.));
#350=DIRECTION('',(1.,0.,0.));
#360=AXIS2_PLACEMENT_3D('',#330,#340,#350);
#370=CIRCLE('',#360,80.);
#380=EDGE_CURVE('',#110,#300,#370,.T.);
#390=ORIENTED_EDGE('',*,*,#380,.T.);
#400=EDGE_LOOP('',(#390,#320,#240,#150));
#410=FACE_OUTER_BOUND('',#400,.T.);
#420=ADVANCED_FACE('',(#410),#50,.T.);
#430=CARTESIAN_POINT('',(96.0000024,116.093898430926,117.171047450425));
#440=DIRECTION('',(-0.,0.,1.));
#450=DIRECTION('',(0.,-1.,0.));
#460=AXIS2_PLACEMENT_3D('',#430,#440,#450);
#470=PLANE('',#460);
#480=CARTESIAN_POINT('',(0.,0.,117.171047450425));
#490=DIRECTION('',(0.,0.,1.));
#500=DIRECTION('',(1.,0.,0.));
#510=AXIS2_PLACEMENT_3D('',#480,#490,#500);
#520=CIRCLE('',#510,77.);
#530=CARTESIAN_POINT('',(77.,0.,117.171047450425));
#540=VERTEX_POINT('',#530);
#550=CARTESIAN_POINT('',(-77.,9.42978035343462E-15,117.171047450425));
#560=VERTEX_POINT('',#550);
#570=EDGE_CURVE('',#540,#560,#520,.T.);
#580=ORIENTED_EDGE('',*,*,#570,.T.);
#590=EDGE_CURVE('',#560,#540,#520,.T.);
#600=ORIENTED_EDGE('',*,*,#590,.T.);
#610=EDGE_LOOP('',(#600,#580));
#620=FACE_BOUND('',#610,.T.);
#630=EDGE_CURVE('',#300,#110,#370,.T.);
#640=ORIENTED_EDGE('',*,*,#630,.F.);
#650=ORIENTED_EDGE('',*,*,#380,.F.);
#660=EDGE_LOOP('',(#650,#640));
#670=FACE_OUTER_BOUND('',#660,.T.);
#680=ADVANCED_FACE('',(#620,#670),#470,.F.);
#690=CARTESIAN_POINT('',(0.,0.,0.));
#700=DIRECTION('',(0.,0.,1.));
#710=DIRECTION('',(1.,0.,0.));
#720=AXIS2_PLACEMENT_3D('',#690,#700,#710);
#730=CYLINDRICAL_SURFACE('',#720,80.);
#740=EDGE_CURVE('',#220,#130,#200,.T.);
#750=ORIENTED_EDGE('',*,*,#740,.F.);
#760=ORIENTED_EDGE('',*,*,#140,.T.);
#770=ORIENTED_EDGE('',*,*,#630,.T.);
#780=ORIENTED_EDGE('',*,*,#310,.F.);
#790=EDGE_LOOP('',(#780,#770,#760,#750));
#800=FACE_OUTER_BOUND('',#790,.T.);
#810=ADVANCED_FACE('',(#800),#730,.T.);
#820=CARTESIAN_POINT('',(0.,0.,0.));
#830=DIRECTION('',(0.,0.,1.));
#840=DIRECTION('',(1.,0.,0.));
#850=AXIS2_PLACEMENT_3D('',#820,#830,#840);
#860=CYLINDRICAL_SURFACE('',#850,77.);
#870=CARTESIAN_POINT('',(77.,0.,0.));
#880=DIRECTION('',(0.,0.,1.));
#890=VECTOR('',#880,1.);
#900=LINE('',#870,#890);
#910=CARTESIAN_POINT('',(77.,0.,2357.17104745043));
#920=VERTEX_POINT('',#910);
#930=EDGE_CURVE('',#540,#920,#900,.T.);
#940=ORIENTED_EDGE('',*,*,#930,.F.);
#950=CARTESIAN_POINT('',(0.,0.,2357.17104745043));
#960=DIRECTION('',(0.,0.,1.));
#970=DIRECTION('',(1.,0.,0.));
#980=AXIS2_PLACEMENT_3D('',#950,#960,#970);
#990=CIRCLE('',#980,77.);
#1000=CARTESIAN_POINT('',(-77.,9.42978035343462E-15,2357.17104745043));
#1010=VERTEX_POINT('',#1000);
#1020=EDGE_CURVE('',#1010,#920,#990,.T.);
#1030=ORIENTED_EDGE('',*,*,#1020,.T.);
#1040=CARTESIAN_POINT('',(-77.,9.42978035343462E-15,0.));
#1050=DIRECTION('',(0.,0.,1.));
#1060=VECTOR('',#1050,1.);
#1070=LINE('',#1040,#1060);
#1080=EDGE_CURVE('',#560,#1010,#1070,.T.);
#1090=ORIENTED_EDGE('',*,*,#1080,.T.);
#1100=ORIENTED_EDGE('',*,*,#590,.F.);
#1110=EDGE_LOOP('',(#1100,#1090,#1030,#940));
#1120=FACE_OUTER_BOUND('',#1110,.T.);
#1130=ADVANCED_FACE('',(#1120),#860,.F.);
#1140=CARTESIAN_POINT('',(98.7499999999999,-3.41060513164848E-13,
2357.17104745043));
#1150=DIRECTION('',(0.,0.,1.));
#1160=DIRECTION('',(1.,0.,0.));
#1170=AXIS2_PLACEMENT_3D('',#1140,#1150,#1160);
#1180=PLANE('',#1170);
#1190=EDGE_CURVE('',#920,#1010,#990,.T.);
#1200=ORIENTED_EDGE('',*,*,#1190,.F.);
#1210=ORIENTED_EDGE('',*,*,#1020,.F.);
#1220=EDGE_LOOP('',(#1210,#1200));
#1230=FACE_BOUND('',#1220,.T.);
#1240=ORIENTED_EDGE('',*,*,#740,.T.);
#1250=ORIENTED_EDGE('',*,*,#230,.T.);
#1260=EDGE_LOOP('',(#1250,#1240));
#1270=FACE_OUTER_BOUND('',#1260,.T.);
#1280=ADVANCED_FACE('',(#1230,#1270),#1180,.T.);
#1290=CARTESIAN_POINT('',(0.,0.,0.));
#1300=DIRECTION('',(0.,0.,1.));
#1310=DIRECTION('',(1.,0.,0.));
#1320=AXIS2_PLACEMENT_3D('',#1290,#1300,#1310);
#1330=CYLINDRICAL_SURFACE('',#1320,77.);
#1340=ORIENTED_EDGE('',*,*,#570,.F.);
#1350=ORIENTED_EDGE('',*,*,#1080,.F.);
#1360=ORIENTED_EDGE('',*,*,#1190,.T.);
#1370=ORIENTED_EDGE('',*,*,#930,.T.);
#1380=EDGE_LOOP('',(#1370,#1360,#1350,#1340));
#1390=FACE_OUTER_BOUND('',#1380,.T.);
#1400=ADVANCED_FACE('',(#1390),#1330,.F.);
#1410=CLOSED_SHELL('',(#420,#680,#810,#1130,#1280,#1400));
#1420=MANIFOLD_SOLID_BREP('',#1410);
#1430=CARTESIAN_POINT('',(0.,0.,0.));
#1440=DIRECTION('',(0.,0.,1.));
#1450=DIRECTION('',(1.,0.,0.));
#1460=AXIS2_PLACEMENT_3D('',#1430,#1440,#1450);
#1470=APPLICATION_CONTEXT(' ');
#1480=APPLICATION_PROTOCOL_DEFINITION(' ','automotive_design',1998,#1470
);
#1490=PRODUCT_CONTEXT('',#1470,'mechanical');
#1500=PRODUCT_DEFINITION_CONTEXT('part definition',#1470,'design');
#1510=PRODUCT('Huelse_DN-160-2240mm','Huelse_DN-160-2240mm','',(#1490));
#1520=PRODUCT_RELATED_PRODUCT_CATEGORY('part',' ',(#1510));
#1530=PRODUCT_DEFINITION_FORMATION_WITH_SPECIFIED_SOURCE('','',#1510,
.BOUGHT.);
#1540=PRODUCT_DEFINITION('',' ',#1530,#1500);
#1550=PRODUCT_DEFINITION_SHAPE('','',#1540);
#1560=DIMENSIONAL_EXPONENTS(1.,0.,0.,0.,0.,0.,0.);
#1570=DIMENSIONAL_EXPONENTS(0.,0.,0.,0.,0.,0.,0.);
#1580=DIMENSIONAL_EXPONENTS(0.,0.,0.,0.,0.,0.,0.);
#1590=(LENGTH_UNIT() NAMED_UNIT(*) SI_UNIT(.MILLI.,.METRE.));
#1600=(NAMED_UNIT(*) PLANE_ANGLE_UNIT() SI_UNIT($,.RADIAN.));
#1610=(NAMED_UNIT(*) SI_UNIT($,.STERADIAN.) SOLID_ANGLE_UNIT());
#1620=(GEOMETRIC_REPRESENTATION_CONTEXT(3) 
GLOBAL_UNCERTAINTY_ASSIGNED_CONTEXT((#1630)) 
GLOBAL_UNIT_ASSIGNED_CONTEXT((#1590,#1600,#1610)) REPRESENTATION_CONTEXT
('',''));
#1630=UNCERTAINTY_MEASURE_WITH_UNIT(LENGTH_MEASURE(1.E-6),#1590,
'distance_accuracy_value','maximum gap value');
#1640=ADVANCED_BREP_SHAPE_REPRESENTATION('',(#1460,#1420),#1620);
#1650=SHAPE_DEFINITION_REPRESENTATION(#1550,#1640);
#1660=COLOUR_RGB('',0.600000023841858,0.600000023841858,
0.600000023841858);
#1670=FILL_AREA_STYLE_COLOUR('',#1660);
#1680=FILL_AREA_STYLE('',(#1670));
#1690=SURFACE_STYLE_FILL_AREA(#1680);
#1700=SURFACE_SIDE_STYLE('',(#1690));
#1710=SURFACE_STYLE_USAGE(.BOTH.,#1700);
#1720=PRESENTATION_STYLE_ASSIGNMENT((#1710));
#1730=STYLED_ITEM('',(#1720),#1420);
#1740=DRAUGHTING_MODEL('',(#1730),#1620);
#1750=CARTESIAN_POINT('',(0.,0.919502918930716,-524.680141667186));
#1760=DIRECTION('',(0.,0.,1.));
#1770=DIRECTION('',(1.,0.,0.));
#1780=AXIS2_PLACEMENT_3D('',#1750,#1760,#1770);
#1790=ITEM_DEFINED_TRANSFORMATION('Huelse_DN-160-2240mm','',#1460,#1780)
;
#1800=APPLICATION_CONTEXT(' ');
#1810=APPLICATION_PROTOCOL_DEFINITION(' ','automotive_design',1998,#1800
);
#1820=PRODUCT_CONTEXT('',#1800,'mechanical');
#1830=PRODUCT_DEFINITION_CONTEXT('part definition',#1800,'design');
#1840=PRODUCT('Huelse_DN-160-2240mm','Huelse_DN-160-2240mm','',(#1820));
#1850=PRODUCT_RELATED_PRODUCT_CATEGORY('part',' ',(#1840));
#1860=PRODUCT_DEFINITION_FORMATION_WITH_SPECIFIED_SOURCE('','',#1840,
.BOUGHT.);
#1870=PRODUCT_DEFINITION('',' ',#1860,#1830);
#1880=PRODUCT_DEFINITION_SHAPE('','',#1870);
#1890=DIMENSIONAL_EXPONENTS(1.,0.,0.,0.,0.,0.,0.);
#1900=DIMENSIONAL_EXPONENTS(0.,0.,0.,0.,0.,0.,0.);
#1910=DIMENSIONAL_EXPONENTS(0.,0.,0.,0.,0.,0.,0.);
#1920=(LENGTH_UNIT() NAMED_UNIT(*) SI_UNIT(.MILLI.,.METRE.));
#1930=(NAMED_UNIT(*) PLANE_ANGLE_UNIT() SI_UNIT($,.RADIAN.));
#1940=(NAMED_UNIT(*) SI_UNIT($,.STERADIAN.) SOLID_ANGLE_UNIT());
#1950=(GEOMETRIC_REPRESENTATION_CONTEXT(3) 
GLOBAL_UNCERTAINTY_ASSIGNED_CONTEXT((#1960)) 
GLOBAL_UNIT_ASSIGNED_CONTEXT((#1920,#1930,#1940)) REPRESENTATION_CONTEXT
('',''));
#1960=UNCERTAINTY_MEASURE_WITH_UNIT(LENGTH_MEASURE(1.E-6),#1920,
'distance_accuracy_value','maximum gap value');
#1970=SHAPE_REPRESENTATION('',(#1460,#1780),#1950);
#1980=SHAPE_DEFINITION_REPRESENTATION(#1880,#1970);
#1990=(REPRESENTATION_RELATIONSHIP('','',#1640,#1970) 
REPRESENTATION_RELATIONSHIP_WITH_TRANSFORMATION(#1790) 
SHAPE_REPRESENTATION_RELATIONSHIP());
#2000=NEXT_ASSEMBLY_USAGE_OCCURRENCE('1','','Huelse_DN-160-2240mm',#1870
,#1540,'');
#2010=PRODUCT_DEFINITION_SHAPE('','',#2000);
#2020=CONTEXT_DEPENDENT_SHAPE_REPRESENTATION(#1990,#2010);
ENDSEC;
END-ISO-10303-21;
