ISO-10303-21;
HEADER;
FILE_DESCRIPTION(('Creo Elements/Direct Modeling STEP Export'),'2;1');
FILE_NAME('0059.0870_PPB 30 VSDF.stp','2018-02-23T14:29:35',(''),(''),
'PTC Creo Elements/Direct Modeling STEP processor for AP214 (Solid Model
)',
'PTC Creo Elements/Direct Modeling 19.0C  15-Aug-2015 (C) Parametric Tec
hnology GmbH','');
FILE_SCHEMA(('AUTOMOTIVE_DESIGN { 1 0 10303 214 1 1 1 1 }'));
ENDSEC;
DATA;
#10=CARTESIAN_POINT('',(37.3903527533104,218.856688450805,
69.6358251285727));
#20=DIRECTION('',(9.69592360619062E-18,-2.22529653413135E-16,-1.));
#30=DIRECTION('',(-4.18980230482702E-5,0.999999999122278,
-2.22530059457846E-16));
#40=AXIS2_PLACEMENT_3D('',#10,#20,#30);
#50=CYLINDRICAL_SURFACE('',#40,45.);
#60=CARTESIAN_POINT('',(37.3922381643476,173.856688490303,
69.6358251285727));
#70=DIRECTION('',(9.69592360619062E-18,-2.22529653413135E-16,-1.));
#80=VECTOR('',#70,1.);
#90=LINE('',#60,#80);
#100=CARTESIAN_POINT('',(37.3922381643476,173.856688490303,
148.835825128573));
#110=VERTEX_POINT('',#100);
#120=CARTESIAN_POINT('',(37.3922381643476,173.856688490302,
-1851.16417487143));
#130=VERTEX_POINT('',#120);
#140=EDGE_CURVE('',#110,#130,#90,.T.);
#150=ORIENTED_EDGE('',*,*,#140,.F.);
#160=CARTESIAN_POINT('',(37.3903527533104,218.856688450805,
-1851.16417487143));
#170=DIRECTION('',(9.69592360619062E-18,-2.22529653413135E-16,-1.));
#180=DIRECTION('',(-4.18980230482702E-5,0.999999999122278,
-2.22530059457846E-16));
#190=AXIS2_PLACEMENT_3D('',#160,#170,#180);
#200=CIRCLE('',#190,45.);
#210=CARTESIAN_POINT('',(37.3884673422733,263.856688411307,
-1851.16417487143));
#220=VERTEX_POINT('',#210);
#230=EDGE_CURVE('',#130,#220,#200,.T.);
#240=ORIENTED_EDGE('',*,*,#230,.F.);
#250=CARTESIAN_POINT('',(37.3884673422732,263.856688411308,
69.6358251285727));
#260=DIRECTION('',(9.69592360619062E-18,-2.22529653413135E-16,-1.));
#270=VECTOR('',#260,1.);
#280=LINE('',#250,#270);
#290=CARTESIAN_POINT('',(37.3884673422732,263.856688411308,
148.835825128573));
#300=VERTEX_POINT('',#290);
#310=EDGE_CURVE('',#300,#220,#280,.T.);
#320=ORIENTED_EDGE('',*,*,#310,.T.);
#330=CARTESIAN_POINT('',(37.3903527533104,218.856688450805,
148.835825128573));
#340=DIRECTION('',(9.69592360619062E-18,-2.22529653413135E-16,-1.));
#350=DIRECTION('',(-4.18980230482702E-5,0.999999999122278,
-2.22530059457846E-16));
#360=AXIS2_PLACEMENT_3D('',#330,#340,#350);
#370=CIRCLE('',#360,45.);
#380=EDGE_CURVE('',#110,#300,#370,.T.);
#390=ORIENTED_EDGE('',*,*,#380,.T.);
#400=EDGE_LOOP('',(#390,#320,#240,#150));
#410=FACE_OUTER_BOUND('',#400,.T.);
#420=ADVANCED_FACE('',(#410),#50,.T.);
#430=CARTESIAN_POINT('',(37.3922124014533,174.471583577463,
148.835825128573));
#440=DIRECTION('',(9.69592360619062E-18,-2.22529653413135E-16,-1.));
#450=DIRECTION('',(-4.18980230482702E-5,0.999999999122278,
-2.22530059457846E-16));
#460=AXIS2_PLACEMENT_3D('',#430,#440,#450);
#470=PLANE('',#460);
#480=CARTESIAN_POINT('',(37.3903527533104,218.856688450805,
148.835825128573));
#490=DIRECTION('',(9.69592360619062E-18,-2.22529653413135E-16,-1.));
#500=DIRECTION('',(-4.18980230482702E-5,0.999999999122278,
-2.22530059457846E-16));
#510=AXIS2_PLACEMENT_3D('',#480,#490,#500);
#520=CIRCLE('',#510,42.);
#530=CARTESIAN_POINT('',(37.3885930363424,260.856688413941,
148.835825128573));
#540=VERTEX_POINT('',#530);
#550=CARTESIAN_POINT('',(37.3921124702784,176.856688487669,
148.835825128573));
#560=VERTEX_POINT('',#550);
#570=EDGE_CURVE('',#540,#560,#520,.T.);
#580=ORIENTED_EDGE('',*,*,#570,.T.);
#590=EDGE_CURVE('',#560,#540,#520,.T.);
#600=ORIENTED_EDGE('',*,*,#590,.T.);
#610=EDGE_LOOP('',(#600,#580));
#620=FACE_BOUND('',#610,.T.);
#630=EDGE_CURVE('',#300,#110,#370,.T.);
#640=ORIENTED_EDGE('',*,*,#630,.F.);
#650=ORIENTED_EDGE('',*,*,#380,.F.);
#660=EDGE_LOOP('',(#650,#640));
#670=FACE_OUTER_BOUND('',#660,.T.);
#680=ADVANCED_FACE('',(#620,#670),#470,.F.);
#690=CARTESIAN_POINT('',(37.3903527533104,218.856688450805,
69.6358251285727));
#700=DIRECTION('',(9.69592360619062E-18,-2.22529653413135E-16,-1.));
#710=DIRECTION('',(-4.18980230482702E-5,0.999999999122278,
-2.22530059457846E-16));
#720=AXIS2_PLACEMENT_3D('',#690,#700,#710);
#730=CYLINDRICAL_SURFACE('',#720,42.);
#740=CARTESIAN_POINT('',(37.3921124702784,176.856688487669,
69.6358251285727));
#750=DIRECTION('',(9.69592360619062E-18,-2.22529653413135E-16,-1.));
#760=VECTOR('',#750,1.);
#770=LINE('',#740,#760);
#780=CARTESIAN_POINT('',(37.3921124702785,176.856688487669,
-1851.16417487143));
#790=VERTEX_POINT('',#780);
#800=EDGE_CURVE('',#560,#790,#770,.T.);
#810=ORIENTED_EDGE('',*,*,#800,.T.);
#820=ORIENTED_EDGE('',*,*,#590,.F.);
#830=CARTESIAN_POINT('',(37.3885930363424,260.856688413941,
69.6358251285727));
#840=DIRECTION('',(9.69592360619062E-18,-2.22529653413135E-16,-1.));
#850=VECTOR('',#840,1.);
#860=LINE('',#830,#850);
#870=CARTESIAN_POINT('',(37.3885930363424,260.85668841394,
-1851.16417487143));
#880=VERTEX_POINT('',#870);
#890=EDGE_CURVE('',#540,#880,#860,.T.);
#900=ORIENTED_EDGE('',*,*,#890,.F.);
#910=CARTESIAN_POINT('',(37.3903527533104,218.856688450805,
-1851.16417487143));
#920=DIRECTION('',(9.69592360619062E-18,-2.22529653413135E-16,-1.));
#930=DIRECTION('',(-4.18980230482702E-5,0.999999999122278,
-2.22530059457846E-16));
#940=AXIS2_PLACEMENT_3D('',#910,#920,#930);
#950=CIRCLE('',#940,42.);
#960=EDGE_CURVE('',#790,#880,#950,.T.);
#970=ORIENTED_EDGE('',*,*,#960,.T.);
#980=EDGE_LOOP('',(#970,#900,#820,#810));
#990=FACE_OUTER_BOUND('',#980,.T.);
#1000=ADVANCED_FACE('',(#990),#730,.F.);
#1010=CARTESIAN_POINT('',(95.8915258278037,221.516686277258,
-1851.16417487143));
#1020=DIRECTION('',(-9.70604518961235E-18,2.22334835319872E-16,1.));
#1030=DIRECTION('',(0.998980763998953,0.0451379348228133,
-3.39582866581976E-19));
#1040=AXIS2_PLACEMENT_3D('',#1010,#1020,#1030);
#1050=PLANE('',#1040);
#1060=EDGE_CURVE('',#880,#790,#950,.T.);
#1070=ORIENTED_EDGE('',*,*,#1060,.F.);
#1080=ORIENTED_EDGE('',*,*,#960,.F.);
#1090=EDGE_LOOP('',(#1080,#1070));
#1100=FACE_BOUND('',#1090,.T.);
#1110=EDGE_CURVE('',#220,#130,#200,.T.);
#1120=ORIENTED_EDGE('',*,*,#1110,.T.);
#1130=ORIENTED_EDGE('',*,*,#230,.T.);
#1140=EDGE_LOOP('',(#1130,#1120));
#1150=FACE_OUTER_BOUND('',#1140,.T.);
#1160=ADVANCED_FACE('',(#1100,#1150),#1050,.F.);
#1170=CARTESIAN_POINT('',(37.3903527533104,218.856688450805,
69.6358251285727));
#1180=DIRECTION('',(9.69592360619062E-18,-2.22529653413135E-16,-1.));
#1190=DIRECTION('',(-4.18980230482702E-5,0.999999999122278,
-2.22530059457846E-16));
#1200=AXIS2_PLACEMENT_3D('',#1170,#1180,#1190);
#1210=CYLINDRICAL_SURFACE('',#1200,42.);
#1220=ORIENTED_EDGE('',*,*,#570,.F.);
#1230=ORIENTED_EDGE('',*,*,#800,.F.);
#1240=ORIENTED_EDGE('',*,*,#1060,.T.);
#1250=ORIENTED_EDGE('',*,*,#890,.T.);
#1260=EDGE_LOOP('',(#1250,#1240,#1230,#1220));
#1270=FACE_OUTER_BOUND('',#1260,.T.);
#1280=ADVANCED_FACE('',(#1270),#1210,.F.);
#1290=CARTESIAN_POINT('',(37.3903527533104,218.856688450805,
69.6358251285727));
#1300=DIRECTION('',(9.69592360619062E-18,-2.22529653413135E-16,-1.));
#1310=DIRECTION('',(-4.18980230482702E-5,0.999999999122278,
-2.22530059457846E-16));
#1320=AXIS2_PLACEMENT_3D('',#1290,#1300,#1310);
#1330=CYLINDRICAL_SURFACE('',#1320,45.);
#1340=ORIENTED_EDGE('',*,*,#1110,.F.);
#1350=ORIENTED_EDGE('',*,*,#140,.T.);
#1360=ORIENTED_EDGE('',*,*,#630,.T.);
#1370=ORIENTED_EDGE('',*,*,#310,.F.);
#1380=EDGE_LOOP('',(#1370,#1360,#1350,#1340));
#1390=FACE_OUTER_BOUND('',#1380,.T.);
#1400=ADVANCED_FACE('',(#1390),#1330,.T.);
#1410=CLOSED_SHELL('',(#420,#680,#1000,#1160,#1280,#1400));
#1420=MANIFOLD_SOLID_BREP('',#1410);
#1430=CARTESIAN_POINT('',(0.,0.,0.));
#1440=DIRECTION('',(0.,0.,1.));
#1450=DIRECTION('',(1.,0.,0.));
#1460=AXIS2_PLACEMENT_3D('',#1430,#1440,#1450);
#1470=APPLICATION_CONTEXT(' ');
#1480=APPLICATION_PROTOCOL_DEFINITION(' ','automotive_design',1998,#1470
);
#1490=PRODUCT_CONTEXT('',#1470,'mechanical');
#1500=PRODUCT_DEFINITION_CONTEXT('part definition',#1470,'design');
#1510=PRODUCT('PVC-Rohr_90x3-2000mm_lang','PVC-Rohr_90x3-2000mm_lang',''
,(#1490));
#1520=PRODUCT_RELATED_PRODUCT_CATEGORY('part',' ',(#1510));
#1530=PRODUCT_DEFINITION_FORMATION_WITH_SPECIFIED_SOURCE('','',#1510,
.BOUGHT.);
#1540=PRODUCT_DEFINITION('',' ',#1530,#1500);
#1550=PRODUCT_DEFINITION_SHAPE('','',#1540);
#1560=DIMENSIONAL_EXPONENTS(1.,0.,0.,0.,0.,0.,0.);
#1570=DIMENSIONAL_EXPONENTS(0.,0.,0.,0.,0.,0.,0.);
#1580=DIMENSIONAL_EXPONENTS(0.,0.,0.,0.,0.,0.,0.);
#1590=(LENGTH_UNIT() NAMED_UNIT(*) SI_UNIT(.MILLI.,.METRE.));
#1600=(NAMED_UNIT(*) PLANE_ANGLE_UNIT() SI_UNIT($,.RADIAN.));
#1610=(NAMED_UNIT(*) SI_UNIT($,.STERADIAN.) SOLID_ANGLE_UNIT());
#1620=(GEOMETRIC_REPRESENTATION_CONTEXT(3) 
GLOBAL_UNCERTAINTY_ASSIGNED_CONTEXT((#1630)) 
GLOBAL_UNIT_ASSIGNED_CONTEXT((#1590,#1600,#1610)) REPRESENTATION_CONTEXT
('',''));
#1630=UNCERTAINTY_MEASURE_WITH_UNIT(LENGTH_MEASURE(1.E-6),#1590,
'distance_accuracy_value','maximum gap value');
#1640=ADVANCED_BREP_SHAPE_REPRESENTATION('',(#1460,#1420),#1620);
#1650=SHAPE_DEFINITION_REPRESENTATION(#1550,#1640);
#1660=COLOUR_RGB('',0.721568644046783,0.588235318660736,
0.313725501298904);
#1670=FILL_AREA_STYLE_COLOUR('',#1660);
#1680=FILL_AREA_STYLE('',(#1670));
#1690=SURFACE_STYLE_FILL_AREA(#1680);
#1700=SURFACE_SIDE_STYLE('',(#1690));
#1710=SURFACE_STYLE_USAGE(.BOTH.,#1700);
#1720=PRESENTATION_STYLE_ASSIGNMENT((#1710));
#1730=STYLED_ITEM('',(#1720),#1420);
#1740=DRAUGHTING_MODEL('',(#1730),#1620);
ENDSEC;
END-ISO-10303-21;
