ISO-10303-21;
HEADER;
FILE_DESCRIPTION (( 'STEP AP214' ),
    '1' );
FILE_NAME ('AWV 20.STEP',
    '2018-05-12T14:44:36',
    ( 'CADnetwork' ),
    ( '' ),
    'SwSTEP 2.0',
    'SolidWorks 2014',
    '' );
FILE_SCHEMA (( 'AUTOMOTIVE_DESIGN' ));
ENDSEC;

DATA;
#1 = CARTESIAN_POINT ( 'NONE',  ( 180.0000000000000000, -180.0000000000000000, 0.0000000000000000000 ) ) ;
#2 = EDGE_LOOP ( 'NONE', ( #106, #130 ) ) ;
#3 = DIRECTION ( 'NONE',  ( -0.0000000000000000000, -0.0000000000000000000, 1.000000000000000000 ) ) ;
#4 = ADVANCED_FACE ( 'NONE', ( #424 ), #162, .T. ) ;
#5 = DIRECTION ( 'NONE',  ( 0.0000000000000000000, -0.0000000000000000000, -1.000000000000000000 ) ) ;
#6 = CARTESIAN_POINT ( 'NONE',  ( 155.0000000000000900, -180.0000000000000000, 130.0000000000000000 ) ) ;
#7 = AXIS2_PLACEMENT_3D ( 'NONE', #44, #45, #47 ) ;
#8 = CARTESIAN_POINT ( 'NONE',  ( -155.0000000000000900, -195.0000000000000000, 25.00000000000000700 ) ) ;
#9 = ORIENTED_EDGE ( 'NONE', *, *, #327, .T. ) ;
#10 = CARTESIAN_POINT ( 'NONE',  ( -180.0000000000000000, 0.0000000000000000000, 0.0000000000000000000 ) ) ;
#11 = DIRECTION ( 'NONE',  ( 0.0000000000000000000, 0.0000000000000000000, -1.000000000000000000 ) ) ;
#12 = VECTOR ( 'NONE', #287, 1000.000000000000000 ) ;
#13 = DIRECTION ( 'NONE',  ( 1.000000000000000000, 0.0000000000000000000, 0.0000000000000000000 ) ) ;
#14 = VECTOR ( 'NONE', #182, 1000.000000000000100 ) ;
#15 = VERTEX_POINT ( 'NONE', #24 ) ;
#16 = FACE_OUTER_BOUND ( 'NONE', #291, .T. ) ;
#17 = AXIS2_PLACEMENT_3D ( 'NONE', #1, #46, #343 ) ;
#18 = ADVANCED_FACE ( 'NONE', ( #131 ), #146, .F. ) ;
#19 = LINE ( 'NONE', #375, #224 ) ;
#20 = CARTESIAN_POINT ( 'NONE',  ( -99.00000000000001400, 1.212400331155879900E-014, -20.00000000000000000 ) ) ;
#21 = ORIENTED_EDGE ( 'NONE', *, *, #326, .F. ) ;
#22 = CARTESIAN_POINT ( 'NONE',  ( 99.00000000000001400, 0.0000000000000000000, 0.0000000000000000000 ) ) ;
#23 = ORIENTED_EDGE ( 'NONE', *, *, #278, .F. ) ;
#24 = CARTESIAN_POINT ( 'NONE',  ( 180.0000000000000000, 270.0000000000000000, 0.0000000000000000000 ) ) ;
#25 = CYLINDRICAL_SURFACE ( 'NONE', #129, 99.00000000000001400 ) ;
#26 = ORIENTED_EDGE ( 'NONE', *, *, #318, .T. ) ;
#27 = CARTESIAN_POINT ( 'NONE',  ( 180.0000000000000000, -180.0000000000000000, 0.0000000000000000000 ) ) ;
#28 = DIRECTION ( 'NONE',  ( 0.0000000000000000000, 0.0000000000000000000, -1.000000000000000000 ) ) ;
#29 = LINE ( 'NONE', #367, #107 ) ;
#30 = AXIS2_PLACEMENT_3D ( 'NONE', #307, #33, #74 ) ;
#31 = ORIENTED_EDGE ( 'NONE', *, *, #244, .F. ) ;
#32 = FACE_OUTER_BOUND ( 'NONE', #190, .T. ) ;
#33 = DIRECTION ( 'NONE',  ( -1.000000000000000000, 0.0000000000000000000, -0.0000000000000000000 ) ) ;
#34 =( NAMED_UNIT ( * ) SI_UNIT ( $, .STERADIAN. ) SOLID_ANGLE_UNIT ( ) );
#35 = ORIENTED_EDGE ( 'NONE', *, *, #322, .T. ) ;
#36 = VECTOR ( 'NONE', #121, 1000.000000000000100 ) ;
#37 = VECTOR ( 'NONE', #3, 1000.000000000000000 ) ;
#38 = CARTESIAN_POINT ( 'NONE',  ( -180.0000000000000000, 270.0000000000000000, 0.0000000000000000000 ) ) ;
#39 = CARTESIAN_POINT ( 'NONE',  ( -155.0000000000000900, -195.0000000000000000, 130.0000000000000000 ) ) ;
#40 = CARTESIAN_POINT ( 'NONE',  ( 155.0000000000000900, -195.0000000000000000, 130.0000000000000000 ) ) ;
#41 = ORIENTED_EDGE ( 'NONE', *, *, #308, .F. ) ;
#42 = ORIENTED_EDGE ( 'NONE', *, *, #330, .F. ) ;
#43 = ADVANCED_FACE ( 'NONE', ( #398 ), #414, .F. ) ;
#44 = CARTESIAN_POINT ( 'NONE',  ( 0.0000000000000000000, 0.0000000000000000000, -20.00000000000000000 ) ) ;
#45 = DIRECTION ( 'NONE',  ( 0.0000000000000000000, 0.0000000000000000000, -1.000000000000000000 ) ) ;
#46 = DIRECTION ( 'NONE',  ( 0.0000000000000000000, 0.0000000000000000000, 1.000000000000000000 ) ) ;
#47 = DIRECTION ( 'NONE',  ( -1.000000000000000000, 0.0000000000000000000, 0.0000000000000000000 ) ) ;
#48 = LINE ( 'NONE', #116, #175 ) ;
#49 = AXIS2_PLACEMENT_3D ( 'NONE', #108, #260, #309 ) ;
#50 = DIRECTION ( 'NONE',  ( -0.0000000000000000000, -0.0000000000000000000, 1.000000000000000000 ) ) ;
#51 = ORIENTED_EDGE ( 'NONE', *, *, #299, .T. ) ;
#52 =( LENGTH_UNIT ( ) NAMED_UNIT ( * ) SI_UNIT ( .MILLI., .METRE. ) );
#53 = DIRECTION ( 'NONE',  ( 1.000000000000000000, 0.0000000000000000000, 0.0000000000000000000 ) ) ;
#54 = PLANE ( 'NONE',  #354 ) ;
#55 = FILL_AREA_STYLE_COLOUR ( '', #392 ) ;
#56 = SURFACE_SIDE_STYLE ('',( #404 ) ) ;
#57 = ADVANCED_FACE ( 'NONE', ( #415 ), #87, .F. ) ;
#58 = ORIENTED_EDGE ( 'NONE', *, *, #278, .T. ) ;
#59 = ORIENTED_EDGE ( 'NONE', *, *, #244, .T. ) ;
#60 = FACE_OUTER_BOUND ( 'NONE', #303, .T. ) ;
#61 = PLANE ( 'NONE',  #109 ) ;
#62 = DIRECTION ( 'NONE',  ( -0.0000000000000000000, 0.0000000000000000000, 1.000000000000000000 ) ) ;
#63 = VECTOR ( 'NONE', #221, 1000.000000000000200 ) ;
#64 = DIRECTION ( 'NONE',  ( 1.000000000000000000, 0.0000000000000000000, 0.0000000000000000000 ) ) ;
#65 = VERTEX_POINT ( 'NONE', #20 ) ;
#66 = CARTESIAN_POINT ( 'NONE',  ( 99.00000000000001400, 0.0000000000000000000, -20.00000000000000000 ) ) ;
#67 = VERTEX_POINT ( 'NONE', #38 ) ;
#68 = CARTESIAN_POINT ( 'NONE',  ( -180.0000000000000000, -180.0000000000000000, 155.0000000000000000 ) ) ;
#69 = EDGE_LOOP ( 'NONE', ( #31, #26, #9, #21 ) ) ;
#70 = AXIS2_PLACEMENT_3D ( 'NONE', #95, #201, #124 ) ;
#71 = DIRECTION ( 'NONE',  ( 0.0000000000000000000, -0.1012966630062163000, -0.9948562640219968900 ) ) ;
#72 = DIRECTION ( 'NONE',  ( 1.000000000000000000, 0.0000000000000000000, 0.0000000000000000000 ) ) ;
#73 = FACE_BOUND ( 'NONE', #268, .T. ) ;
#74 = DIRECTION ( 'NONE',  ( -0.0000000000000000000, 0.0000000000000000000, 1.000000000000000000 ) ) ;
#75 = ORIENTED_EDGE ( 'NONE', *, *, #319, .F. ) ;
#76 =( LENGTH_UNIT ( ) NAMED_UNIT ( * ) SI_UNIT ( .MILLI., .METRE. ) );
#77 = DIRECTION ( 'NONE',  ( 1.000000000000000000, -0.0000000000000000000, 0.0000000000000000000 ) ) ;
#78 = CARTESIAN_POINT ( 'NONE',  ( 180.0000000000000000, 203.0273687740026400, 116.0000000000000000 ) ) ;
#79 = VERTEX_POINT ( 'NONE', #159 ) ;
#80 = CIRCLE ( 'NONE', #7, 99.00000000000001400 ) ;
#81 = PRODUCT_DEFINITION_SHAPE ( 'NONE', 'NONE',  #296 ) ;
#82 = COLOUR_RGB ( '',0.7529411764705882200, 0.7529411764705882200, 0.7529411764705882200 ) ;
#83 = CARTESIAN_POINT ( 'NONE',  ( 155.0000000000000900, -195.0000000000000000, 130.0000000000000000 ) ) ;
#84 = DIRECTION ( 'NONE',  ( -0.0000000000000000000, 1.000000000000000000, -0.0000000000000000000 ) ) ;
#85 = LINE ( 'NONE', #39, #310 ) ;
#86 = VERTEX_POINT ( 'NONE', #125 ) ;
#87 = PLANE ( 'NONE',  #208 ) ;
#88 = LINE ( 'NONE', #357, #236 ) ;
#89 = CARTESIAN_POINT ( 'NONE',  ( -155.0000000000000900, -195.0000000000000000, 25.00000000000000700 ) ) ;
#90 = ORIENTED_EDGE ( 'NONE', *, *, #250, .F. ) ;
#91 = ORIENTED_EDGE ( 'NONE', *, *, #328, .T. ) ;
#92 = LINE ( 'NONE', #158, #14 ) ;
#93 = ORIENTED_EDGE ( 'NONE', *, *, #326, .T. ) ;
#94 = CARTESIAN_POINT ( 'NONE',  ( 0.0000000000000000000, 0.0000000000000000000, -20.00000000000000000 ) ) ;
#95 = CARTESIAN_POINT ( 'NONE',  ( 0.0000000000000000000, 0.0000000000000000000, -20.00000000000000000 ) ) ;
#96 = DIRECTION ( 'NONE',  ( 0.0000000000000000000, 0.9948562640219967800, -0.1012966630062162900 ) ) ;
#97 = VECTOR ( 'NONE', #403, 1000.000000000000000 ) ;
#98 = MANIFOLD_SOLID_BREP ( 'Aufsatz-Linear austragen3', #261 ) ;
#99 = ORIENTED_EDGE ( 'NONE', *, *, #293, .T. ) ;
#100 = LINE ( 'NONE', #170, #36 ) ;
#101 = VERTEX_POINT ( 'NONE', #151 ) ;
#102 = AXIS2_PLACEMENT_3D ( 'NONE', #10, #77, #28 ) ;
#103 = ADVANCED_FACE ( 'NONE', ( #336 ), #110, .T. ) ;
#104 = DIRECTION ( 'NONE',  ( 0.0000000000000000000, -1.000000000000000000, 0.0000000000000000000 ) ) ;
#105 = DIRECTION ( 'NONE',  ( 0.0000000000000000000, 0.0000000000000000000, -1.000000000000000000 ) ) ;
#106 = ORIENTED_EDGE ( 'NONE', *, *, #312, .F. ) ;
#107 = VECTOR ( 'NONE', #346, 1000.000000000000000 ) ;
#108 = CARTESIAN_POINT ( 'NONE',  ( 180.0000000000000000, -180.0000000000000000, 155.0000000000000000 ) ) ;
#109 = AXIS2_PLACEMENT_3D ( 'NONE', #78, #71, #96 ) ;
#110 = CYLINDRICAL_SURFACE ( 'NONE', #136, 99.00000000000001400 ) ;
#111 = DIRECTION ( 'NONE',  ( -1.000000000000000000, 0.0000000000000000000, 0.0000000000000000000 ) ) ;
#112 = VECTOR ( 'NONE', #386, 1000.000000000000000 ) ;
#113 = CARTESIAN_POINT ( 'NONE',  ( 180.0000000000000000, 0.0000000000000000000, 0.0000000000000000000 ) ) ;
#114 = FACE_BOUND ( 'NONE', #2, .T. ) ;
#115 = SURFACE_STYLE_USAGE ( .BOTH. , #338 ) ;
#116 = CARTESIAN_POINT ( 'NONE',  ( 155.0000000000000900, -195.0000000000000000, 25.00000000000000700 ) ) ;
#117 = VERTEX_POINT ( 'NONE', #154 ) ;
#118 = ADVANCED_FACE ( 'NONE', ( #180 ), #25, .T. ) ;
#119 = LINE ( 'NONE', #178, #372 ) ;
#120 = DIRECTION ( 'NONE',  ( -1.000000000000000000, 0.0000000000000000000, -0.0000000000000000000 ) ) ;
#121 = DIRECTION ( 'NONE',  ( 0.0000000000000000000, -0.9948562640219967800, 0.1012966630062162700 ) ) ;
#122 = DIRECTION ( 'NONE',  ( -0.0000000000000000000, 1.000000000000000000, -0.0000000000000000000 ) ) ;
#123 = ORIENTED_EDGE ( 'NONE', *, *, #250, .T. ) ;
#124 = DIRECTION ( 'NONE',  ( -1.000000000000000000, 0.0000000000000000000, -0.0000000000000000000 ) ) ;
#125 = CARTESIAN_POINT ( 'NONE',  ( 180.0000000000000000, -180.0000000000000000, 155.0000000000000000 ) ) ;
#126 = ADVANCED_FACE ( 'NONE', ( #379 ), #61, .F. ) ;
#127 =( NAMED_UNIT ( * ) SI_UNIT ( $, .STERADIAN. ) SOLID_ANGLE_UNIT ( ) );
#128 = VERTEX_POINT ( 'NONE', #209 ) ;
#129 = AXIS2_PLACEMENT_3D ( 'NONE', #143, #248, #220 ) ;
#130 = ORIENTED_EDGE ( 'NONE', *, *, #327, .F. ) ;
#131 = FACE_OUTER_BOUND ( 'NONE', #284, .T. ) ;
#132 = ADVANCED_FACE ( 'NONE', ( #60 ), #411, .F. ) ;
#133 = VECTOR ( 'NONE', #313, 1000.000000000000000 ) ;
#134 = VERTEX_POINT ( 'NONE', #68 ) ;
#135 = ORIENTED_EDGE ( 'NONE', *, *, #314, .T. ) ;
#136 = AXIS2_PLACEMENT_3D ( 'NONE', #243, #50, #142 ) ;
#137 = LINE ( 'NONE', #387, #288 ) ;
#138 = DIRECTION ( 'NONE',  ( 1.000000000000000000, -0.0000000000000000000, 0.0000000000000000000 ) ) ;
#139 = CARTESIAN_POINT ( 'NONE',  ( 0.0000000000000000000, -195.0000000000000000, 0.0000000000000000000 ) ) ;
#140 = ORIENTED_EDGE ( 'NONE', *, *, #328, .F. ) ;
#141 = DIRECTION ( 'NONE',  ( 0.0000000000000000000, 0.0000000000000000000, 1.000000000000000000 ) ) ;
#142 = DIRECTION ( 'NONE',  ( 1.000000000000000000, 0.0000000000000000000, 0.0000000000000000000 ) ) ;
#143 = CARTESIAN_POINT ( 'NONE',  ( 0.0000000000000000000, 0.0000000000000000000, -20.00000000000000000 ) ) ;
#144 = APPLICATION_PROTOCOL_DEFINITION ( 'draft international standard', 'automotive_design', 1998, #358 ) ;
#145 = CARTESIAN_POINT ( 'NONE',  ( -155.0000000000000900, -195.0000000000000000, 25.00000000000000700 ) ) ;
#146 = PLANE ( 'NONE',  #227 ) ;
#147 = ORIENTED_EDGE ( 'NONE', *, *, #306, .F. ) ;
#148 = CARTESIAN_POINT ( 'NONE',  ( -180.0000000000000000, -180.0000000000000000, 0.0000000000000000000 ) ) ;
#149 = ORIENTED_EDGE ( 'NONE', *, *, #305, .T. ) ;
#150 = ADVANCED_FACE ( 'NONE', ( #188 ), #407, .T. ) ;
#151 = CARTESIAN_POINT ( 'NONE',  ( -99.00000000000001400, 1.212400331155879900E-014, 0.0000000000000000000 ) ) ;
#152 = DIRECTION ( 'NONE',  ( 0.0000000000000000000, -0.8660254037844361500, -0.5000000000000044400 ) ) ;
#153 = EDGE_LOOP ( 'NONE', ( #135, #140, #147, #149 ) ) ;
#154 = CARTESIAN_POINT ( 'NONE',  ( -155.0000000000000900, -180.0000000000000000, 130.0000000000000000 ) ) ;
#155 = ADVANCED_FACE ( 'NONE', ( #184, #73 ), #320, .F. ) ;
#156 = ORIENTED_EDGE ( 'NONE', *, *, #285, .F. ) ;
#157 = ADVANCED_BREP_SHAPE_REPRESENTATION ( 'AWV 20', ( #98, #186 ), #366 ) ;
#158 = CARTESIAN_POINT ( 'NONE',  ( -180.0000000000000000, 203.0273687740026400, 116.0000000000000000 ) ) ;
#159 = CARTESIAN_POINT ( 'NONE',  ( -155.0000000000000900, -195.0000000000000000, 25.00000000000000700 ) ) ;
#160 = VERTEX_POINT ( 'NONE', #219 ) ;
#161 = DIRECTION ( 'NONE',  ( 0.0000000000000000000, 0.0000000000000000000, -1.000000000000000000 ) ) ;
#162 = PLANE ( 'NONE',  #234 ) ;
#163 = LINE ( 'NONE', #321, #266 ) ;
#164 = ORIENTED_EDGE ( 'NONE', *, *, #306, .T. ) ;
#165 = FACE_OUTER_BOUND ( 'NONE', #242, .T. ) ;
#166 = VERTEX_POINT ( 'NONE', #352 ) ;
#167 = VECTOR ( 'NONE', #292, 1000.000000000000000 ) ;
#168 = LINE ( 'NONE', #83, #212 ) ;
#169 = ORIENTED_EDGE ( 'NONE', *, *, #314, .F. ) ;
#170 = CARTESIAN_POINT ( 'NONE',  ( 180.0000000000000000, 203.0273687740026400, 116.0000000000000000 ) ) ;
#171 = AXIS2_PLACEMENT_3D ( 'NONE', #368, #369, #370 ) ;
#172 = VECTOR ( 'NONE', #376, 1000.000000000000000 ) ;
#173 = SURFACE_STYLE_USAGE ( .BOTH. , #56 ) ;
#174 = ORIENTED_EDGE ( 'NONE', *, *, #322, .F. ) ;
#175 = VECTOR ( 'NONE', #122, 1000.000000000000000 ) ;
#176 =( GEOMETRIC_REPRESENTATION_CONTEXT ( 3 ) GLOBAL_UNCERTAINTY_ASSIGNED_CONTEXT ( ( #271 ) ) GLOBAL_UNIT_ASSIGNED_CONTEXT ( ( #52, #272, #34 ) ) REPRESENTATION_CONTEXT ( 'NONE', 'WORKASPACE' ) );
#177 = SURFACE_STYLE_FILL_AREA ( #422 ) ;
#178 = CARTESIAN_POINT ( 'NONE',  ( -155.0000000000000900, -195.0000000000000000, 130.0000000000000000 ) ) ;
#179 = ORIENTED_EDGE ( 'NONE', *, *, #293, .F. ) ;
#180 = FACE_OUTER_BOUND ( 'NONE', #423, .T. ) ;
#181 = LINE ( 'NONE', #344, #97 ) ;
#182 = DIRECTION ( 'NONE',  ( 0.0000000000000000000, -0.9948562640219967800, 0.1012966630062162700 ) ) ;
#183 = LINE ( 'NONE', #40, #37 ) ;
#184 = FACE_OUTER_BOUND ( 'NONE', #153, .T. ) ;
#185 = VECTOR ( 'NONE', #382, 1000.000000000000000 ) ;
#186 = AXIS2_PLACEMENT_3D ( 'NONE', #277, #141, #53 ) ;
#187 = VERTEX_POINT ( 'NONE', #300 ) ;
#188 = FACE_OUTER_BOUND ( 'NONE', #280, .T. ) ;
#189 = CARTESIAN_POINT ( 'NONE',  ( 180.0000000000000000, 270.0000000000000000, 0.0000000000000000000 ) ) ;
#190 = EDGE_LOOP ( 'NONE', ( #417, #237, #90, #214 ) ) ;
#191 = DIRECTION ( 'NONE',  ( -0.0000000000000000000, 1.000000000000000000, -0.0000000000000000000 ) ) ;
#192 = VECTOR ( 'NONE', #256, 1000.000000000000200 ) ;
#193 = ADVANCED_FACE ( 'NONE', ( #32 ), #361, .F. ) ;
#194 = ORIENTED_EDGE ( 'NONE', *, *, #285, .T. ) ;
#195 = MECHANICAL_DESIGN_GEOMETRIC_PRESENTATION_REPRESENTATION (  '', ( #213 ), #176 ) ;
#196 = CARTESIAN_POINT ( 'NONE',  ( -180.0000000000000000, 270.0000000000000000, 0.0000000000000000000 ) ) ;
#197 = PRESENTATION_STYLE_ASSIGNMENT (( #115 ) ) ;
#198 = ORIENTED_EDGE ( 'NONE', *, *, #270, .T. ) ;
#199 = ORIENTED_EDGE ( 'NONE', *, *, #275, .T. ) ;
#200 = DIRECTION ( 'NONE',  ( -0.0000000000000000000, 1.000000000000000000, -0.0000000000000000000 ) ) ;
#201 = DIRECTION ( 'NONE',  ( 0.0000000000000000000, 0.0000000000000000000, -1.000000000000000000 ) ) ;
#202 = UNCERTAINTY_MEASURE_WITH_UNIT (LENGTH_MEASURE( 1.000000000000000100E-005 ), #373, 'distance_accuracy_value', 'NONE');
#203 = VERTEX_POINT ( 'NONE', #66 ) ;
#204 = CARTESIAN_POINT ( 'NONE',  ( -155.0000000000000900, -180.0000000000000000, 25.00000000000000700 ) ) ;
#205 = PRESENTATION_LAYER_ASSIGNMENT (  '', '', ( #213 ) ) ;
#206 = ORIENTED_EDGE ( 'NONE', *, *, #295, .F. ) ;
#207 = FACE_OUTER_BOUND ( 'NONE', #245, .T. ) ;
#208 = AXIS2_PLACEMENT_3D ( 'NONE', #420, #281, #11 ) ;
#209 = CARTESIAN_POINT ( 'NONE',  ( 155.0000000000000900, -195.0000000000000000, 25.00000000000000700 ) ) ;
#210 = EDGE_LOOP ( 'NONE', ( #164, #413, #332, #199 ) ) ;
#211 = ADVANCED_FACE ( 'NONE', ( #16, #114 ), #304, .F. ) ;
#212 = VECTOR ( 'NONE', #84, 1000.000000000000000 ) ;
#213 = STYLED_ITEM ( 'NONE', ( #255 ), #98 ) ;
#214 = ORIENTED_EDGE ( 'NONE', *, *, #264, .T. ) ;
#215 = ADVANCED_FACE ( 'NONE', ( #207 ), #393, .T. ) ;
#216 = AXIS2_PLACEMENT_3D ( 'NONE', #240, #363, #120 ) ;
#217 = UNCERTAINTY_MEASURE_WITH_UNIT (LENGTH_MEASURE( 1.000000000000000100E-005 ), #76, 'distance_accuracy_value', 'NONE');
#218 = LINE ( 'NONE', #383, #112 ) ;
#219 = CARTESIAN_POINT ( 'NONE',  ( -180.0000000000000000, 203.0273687740026400, 116.0000000000000000 ) ) ;
#220 = DIRECTION ( 'NONE',  ( 1.000000000000000000, 0.0000000000000000000, 0.0000000000000000000 ) ) ;
#221 = DIRECTION ( 'NONE',  ( 0.0000000000000000000, -0.5000000000000044400, 0.8660254037844361500 ) ) ;
#222 = ORIENTED_EDGE ( 'NONE', *, *, #276, .T. ) ;
#223 = CIRCLE ( 'NONE', #348, 99.00000000000001400 ) ;
#224 = VECTOR ( 'NONE', #380, 1000.000000000000000 ) ;
#225 = ORIENTED_EDGE ( 'NONE', *, *, #282, .T. ) ;
#226 = VERTEX_POINT ( 'NONE', #22 ) ;
#227 = AXIS2_PLACEMENT_3D ( 'NONE', #331, #152, #246 ) ;
#228 = LINE ( 'NONE', #301, #133 ) ;
#229 = VERTEX_POINT ( 'NONE', #27 ) ;
#230 = CARTESIAN_POINT ( 'NONE',  ( -155.0000000000001400, -180.0000000000000000, 24.99999999999999300 ) ) ;
#231 = LINE ( 'NONE', #145, #360 ) ;
#232 = LINE ( 'NONE', #196, #192 ) ;
#233 =( NAMED_UNIT ( * ) PLANE_ANGLE_UNIT ( ) SI_UNIT ( $, .RADIAN. ) );
#234 = AXIS2_PLACEMENT_3D ( 'NONE', #113, #138, #371 ) ;
#235 = ORIENTED_EDGE ( 'NONE', *, *, #290, .F. ) ;
#236 = VECTOR ( 'NONE', #359, 1000.000000000000000 ) ;
#237 = ORIENTED_EDGE ( 'NONE', *, *, #257, .F. ) ;
#238 = ORIENTED_EDGE ( 'NONE', *, *, #297, .F. ) ;
#239 = LINE ( 'NONE', #384, #172 ) ;
#240 = CARTESIAN_POINT ( 'NONE',  ( -155.0000000000000900, -195.0000000000000000, 130.0000000000000000 ) ) ;
#241 = ORIENTED_EDGE ( 'NONE', *, *, #263, .T. ) ;
#242 = EDGE_LOOP ( 'NONE', ( #99, #267, #323, #58 ) ) ;
#243 = CARTESIAN_POINT ( 'NONE',  ( 0.0000000000000000000, 0.0000000000000000000, -20.00000000000000000 ) ) ;
#244 = EDGE_CURVE ( 'NONE', #65, #203, #80, .T. ) ;
#245 = EDGE_LOOP ( 'NONE', ( #198, #241, #123, #294 ) ) ;
#246 = DIRECTION ( 'NONE',  ( 0.0000000000000000000, 0.5000000000000044400, -0.8660254037844361500 ) ) ;
#247 = CARTESIAN_POINT ( 'NONE',  ( 180.0000000000000000, 203.0273687740026400, 116.0000000000000000 ) ) ;
#248 = DIRECTION ( 'NONE',  ( -0.0000000000000000000, -0.0000000000000000000, 1.000000000000000000 ) ) ;
#249 = CARTESIAN_POINT ( 'NONE',  ( 155.0000000000000900, -180.0000000000000000, 130.0000000000000000 ) ) ;
#250 = EDGE_CURVE ( 'NONE', #128, #329, #183, .T. ) ;
#251 = DIRECTION ( 'NONE',  ( -1.000000000000000000, -0.0000000000000000000, -0.0000000000000000000 ) ) ;
#252 = PRESENTATION_LAYER_ASSIGNMENT (  '', '', ( #374 ) ) ;
#253 = ORIENTED_EDGE ( 'NONE', *, *, #318, .F. ) ;
#254 = ADVANCED_FACE ( 'NONE', ( #165 ), #54, .F. ) ;
#255 = PRESENTATION_STYLE_ASSIGNMENT (( #173 ) ) ;
#256 = DIRECTION ( 'NONE',  ( 0.0000000000000000000, -0.5000000000000044400, 0.8660254037844361500 ) ) ;
#257 = EDGE_CURVE ( 'NONE', #329, #409, #168, .T. ) ;
#258 = LINE ( 'NONE', #286, #339 ) ;
#259 = EDGE_CURVE ( 'NONE', #203, #65, #223, .T. ) ;
#260 = DIRECTION ( 'NONE',  ( -0.0000000000000000000, 1.000000000000000000, 0.0000000000000000000 ) ) ;
#261 = CLOSED_SHELL ( 'NONE', ( #103, #211, #155, #18, #126, #4, #132, #57, #254, #193, #43, #215, #118, #150 ) ) ;
#262 = ORIENTED_EDGE ( 'NONE', *, *, #330, .T. ) ;
#263 = EDGE_CURVE ( 'NONE', #79, #128, #311, .T. ) ;
#264 = EDGE_CURVE ( 'NONE', #128, #166, #48, .T. ) ;
#265 = PRODUCT ( 'AWV 20', 'AWV 20', '', ( #400 ) ) ;
#266 = VECTOR ( 'NONE', #335, 1000.000000000000000 ) ;
#267 = ORIENTED_EDGE ( 'NONE', *, *, #264, .F. ) ;
#268 = EDGE_LOOP ( 'NONE', ( #353, #238, #206, #179 ) ) ;
#269 = VERTEX_POINT ( 'NONE', #148 ) ;
#270 = EDGE_CURVE ( 'NONE', #187, #79, #85, .T. ) ;
#271 = UNCERTAINTY_MEASURE_WITH_UNIT (LENGTH_MEASURE( 1.000000000000000100E-005 ), #52, 'distance_accuracy_value', 'NONE');
#272 =( NAMED_UNIT ( * ) PLANE_ANGLE_UNIT ( ) SI_UNIT ( $, .RADIAN. ) );
#273 = ORIENTED_EDGE ( 'NONE', *, *, #282, .F. ) ;
#274 = EDGE_LOOP ( 'NONE', ( #222, #408, #324, #194 ) ) ;
#275 = EDGE_CURVE ( 'NONE', #390, #86, #100, .T. ) ;
#276 = EDGE_CURVE ( 'NONE', #160, #134, #92, .T. ) ;
#277 = CARTESIAN_POINT ( 'NONE',  ( 0.0000000000000000000, 0.0000000000000000000, 0.0000000000000000000 ) ) ;
#278 = EDGE_CURVE ( 'NONE', #79, #341, #231, .T. ) ;
#279 = LINE ( 'NONE', #365, #185 ) ;
#280 = EDGE_LOOP ( 'NONE', ( #333, #59 ) ) ;
#281 = DIRECTION ( 'NONE',  ( 1.000000000000000000, 0.0000000000000000000, 0.0000000000000000000 ) ) ;
#282 = EDGE_CURVE ( 'NONE', #187, #117, #119, .T. ) ;
#283 = EDGE_CURVE ( 'NONE', #15, #390, #406, .T. ) ;
#284 = EDGE_LOOP ( 'NONE', ( #378, #156, #397, #262 ) ) ;
#285 = EDGE_CURVE ( 'NONE', #390, #160, #315, .T. ) ;
#286 = CARTESIAN_POINT ( 'NONE',  ( 180.0000000000000000, -180.0000000000000000, 155.0000000000000000 ) ) ;
#287 = DIRECTION ( 'NONE',  ( 1.000000000000000000, 0.0000000000000000000, 0.0000000000000000000 ) ) ;
#288 = VECTOR ( 'NONE', #389, 1000.000000000000000 ) ;
#289 = ORIENTED_EDGE ( 'NONE', *, *, #297, .T. ) ;
#290 = EDGE_CURVE ( 'NONE', #67, #160, #232, .T. ) ;
#291 = EDGE_LOOP ( 'NONE', ( #35, #42, #75, #91 ) ) ;
#292 = DIRECTION ( 'NONE',  ( -0.0000000000000000000, -0.0000000000000000000, 1.000000000000000000 ) ) ;
#293 = EDGE_CURVE ( 'NONE', #341, #166, #350, .T. ) ;
#294 = ORIENTED_EDGE ( 'NONE', *, *, #308, .T. ) ;
#295 = EDGE_CURVE ( 'NONE', #166, #409, #401, .T. ) ;
#296 = PRODUCT_DEFINITION ( 'UNKNOWN', '', #381, #325 ) ;
#297 = EDGE_CURVE ( 'NONE', #409, #117, #228, .T. ) ;
#298 = VECTOR ( 'NONE', #251, 1000.000000000000000 ) ;
#299 = EDGE_CURVE ( 'NONE', #117, #341, #163, .T. ) ;
#300 = CARTESIAN_POINT ( 'NONE',  ( -155.0000000000000900, -195.0000000000000000, 130.0000000000000000 ) ) ;
#301 = CARTESIAN_POINT ( 'NONE',  ( -155.0000000000000900, -180.0000000000000000, 130.0000000000000000 ) ) ;
#302 = CARTESIAN_POINT ( 'NONE',  ( 180.0000000000000000, 203.0273687740026400, 116.0000000000000000 ) ) ;
#303 = EDGE_LOOP ( 'NONE', ( #169, #342, #235, #174 ) ) ;
#304 = PLANE ( 'NONE',  #17 ) ;
#305 = EDGE_CURVE ( 'NONE', #86, #134, #394, .T. ) ;
#306 = EDGE_CURVE ( 'NONE', #86, #229, #258, .T. ) ;
#307 = CARTESIAN_POINT ( 'NONE',  ( 155.0000000000000900, -195.0000000000000000, 130.0000000000000000 ) ) ;
#308 = EDGE_CURVE ( 'NONE', #329, #187, #88, .T. ) ;
#309 = DIRECTION ( 'NONE',  ( 0.0000000000000000000, -0.0000000000000000000, 1.000000000000000000 ) ) ;
#310 = VECTOR ( 'NONE', #161, 1000.000000000000000 ) ;
#311 = LINE ( 'NONE', #89, #317 ) ;
#312 = EDGE_CURVE ( 'NONE', #226, #101, #385, .T. ) ;
#313 = DIRECTION ( 'NONE',  ( -1.000000000000000000, -0.0000000000000000000, -0.0000000000000000000 ) ) ;
#314 = EDGE_CURVE ( 'NONE', #134, #269, #29, .T. ) ;
#315 = LINE ( 'NONE', #247, #298 ) ;
#316 = EDGE_LOOP ( 'NONE', ( #289, #273, #41, #351 ) ) ;
#317 = VECTOR ( 'NONE', #72, 1000.000000000000000 ) ;
#318 = EDGE_CURVE ( 'NONE', #65, #101, #19, .T. ) ;
#319 = EDGE_CURVE ( 'NONE', #229, #15, #279, .T. ) ;
#320 = PLANE ( 'NONE',  #49 ) ;
#321 = CARTESIAN_POINT ( 'NONE',  ( -155.0000000000000900, -180.0000000000000000, 130.0000000000000000 ) ) ;
#322 = EDGE_CURVE ( 'NONE', #269, #67, #218, .T. ) ;
#323 = ORIENTED_EDGE ( 'NONE', *, *, #263, .F. ) ;
#324 = ORIENTED_EDGE ( 'NONE', *, *, #275, .F. ) ;
#325 = PRODUCT_DEFINITION_CONTEXT ( 'detailed design', #362, 'design' ) ;
#326 = EDGE_CURVE ( 'NONE', #203, #226, #239, .T. ) ;
#327 = EDGE_CURVE ( 'NONE', #101, #226, #416, .T. ) ;
#328 = EDGE_CURVE ( 'NONE', #229, #269, #137, .T. ) ;
#329 = VERTEX_POINT ( 'NONE', #399 ) ;
#330 = EDGE_CURVE ( 'NONE', #15, #67, #181, .T. ) ;
#331 = CARTESIAN_POINT ( 'NONE',  ( 180.0000000000000000, 270.0000000000000000, 0.0000000000000000000 ) ) ;
#332 = ORIENTED_EDGE ( 'NONE', *, *, #283, .T. ) ;
#333 = ORIENTED_EDGE ( 'NONE', *, *, #259, .T. ) ;
#334 = VECTOR ( 'NONE', #347, 1000.000000000000000 ) ;
#335 = DIRECTION ( 'NONE',  ( 0.0000000000000000000, 0.0000000000000000000, -1.000000000000000000 ) ) ;
#336 = FACE_OUTER_BOUND ( 'NONE', #69, .T. ) ;
#337 = CARTESIAN_POINT ( 'NONE',  ( 0.0000000000000000000, 0.0000000000000000000, 0.0000000000000000000 ) ) ;
#338 = SURFACE_SIDE_STYLE ('',( #177 ) ) ;
#339 = VECTOR ( 'NONE', #349, 1000.000000000000000 ) ;
#340 = CARTESIAN_POINT ( 'NONE',  ( 180.0000000000000000, -180.0000000000000000, 155.0000000000000000 ) ) ;
#341 = VERTEX_POINT ( 'NONE', #230 ) ;
#342 = ORIENTED_EDGE ( 'NONE', *, *, #276, .F. ) ;
#343 = DIRECTION ( 'NONE',  ( 1.000000000000000000, 0.0000000000000000000, -0.0000000000000000000 ) ) ;
#344 = CARTESIAN_POINT ( 'NONE',  ( 180.0000000000000000, 270.0000000000000000, 0.0000000000000000000 ) ) ;
#345 = SHAPE_DEFINITION_REPRESENTATION ( #81, #157 ) ;
#346 = DIRECTION ( 'NONE',  ( 0.0000000000000000000, 0.0000000000000000000, -1.000000000000000000 ) ) ;
#347 = DIRECTION ( 'NONE',  ( -1.000000000000000000, -0.0000000000000000000, -0.0000000000000000000 ) ) ;
#348 = AXIS2_PLACEMENT_3D ( 'NONE', #94, #105, #111 ) ;
#349 = DIRECTION ( 'NONE',  ( 0.0000000000000000000, 0.0000000000000000000, -1.000000000000000000 ) ) ;
#350 = LINE ( 'NONE', #204, #12 ) ;
#351 = ORIENTED_EDGE ( 'NONE', *, *, #257, .T. ) ;
#352 = CARTESIAN_POINT ( 'NONE',  ( 155.0000000000000900, -180.0000000000000000, 25.00000000000002100 ) ) ;
#353 = ORIENTED_EDGE ( 'NONE', *, *, #299, .F. ) ;
#354 = AXIS2_PLACEMENT_3D ( 'NONE', #8, #62, #64 ) ;
#355 = AXIS2_PLACEMENT_3D ( 'NONE', #139, #104, #5 ) ;
#356 = ORIENTED_EDGE ( 'NONE', *, *, #312, .T. ) ;
#357 = CARTESIAN_POINT ( 'NONE',  ( -155.0000000000000900, -195.0000000000000000, 130.0000000000000000 ) ) ;
#358 = APPLICATION_CONTEXT ( 'automotive_design' ) ;
#359 = DIRECTION ( 'NONE',  ( -1.000000000000000000, -0.0000000000000000000, -0.0000000000000000000 ) ) ;
#360 = VECTOR ( 'NONE', #191, 1000.000000000000000 ) ;
#361 = PLANE ( 'NONE',  #30 ) ;
#362 = APPLICATION_CONTEXT ( 'automotive_design' ) ;
#363 = DIRECTION ( 'NONE',  ( 0.0000000000000000000, 0.0000000000000000000, -1.000000000000000000 ) ) ;
#364 = AXIS2_PLACEMENT_3D ( 'NONE', #337, #412, #13 ) ;
#365 = CARTESIAN_POINT ( 'NONE',  ( 180.0000000000000000, -180.0000000000000000, 0.0000000000000000000 ) ) ;
#366 =( GEOMETRIC_REPRESENTATION_CONTEXT ( 3 ) GLOBAL_UNCERTAINTY_ASSIGNED_CONTEXT ( ( #202 ) ) GLOBAL_UNIT_ASSIGNED_CONTEXT ( ( #373, #233, #127 ) ) REPRESENTATION_CONTEXT ( 'NONE', 'WORKASPACE' ) );
#367 = CARTESIAN_POINT ( 'NONE',  ( -180.0000000000000000, -180.0000000000000000, 155.0000000000000000 ) ) ;
#368 = CARTESIAN_POINT ( 'NONE',  ( 0.0000000000000000000, 0.0000000000000000000, 0.0000000000000000000 ) ) ;
#369 = DIRECTION ( 'NONE',  ( -0.0000000000000000000, -0.0000000000000000000, -1.000000000000000000 ) ) ;
#370 = DIRECTION ( 'NONE',  ( 1.000000000000000000, 0.0000000000000000000, 0.0000000000000000000 ) ) ;
#371 = DIRECTION ( 'NONE',  ( 0.0000000000000000000, 0.0000000000000000000, -1.000000000000000000 ) ) ;
#372 = VECTOR ( 'NONE', #200, 1000.000000000000000 ) ;
#373 =( LENGTH_UNIT ( ) NAMED_UNIT ( * ) SI_UNIT ( .MILLI., .METRE. ) );
#374 = STYLED_ITEM ( 'NONE', ( #197 ), #157 ) ;
#375 = CARTESIAN_POINT ( 'NONE',  ( -99.00000000000001400, 1.212400331155879900E-014, -20.00000000000000000 ) ) ;
#376 = DIRECTION ( 'NONE',  ( -0.0000000000000000000, -0.0000000000000000000, 1.000000000000000000 ) ) ;
#377 = MECHANICAL_DESIGN_GEOMETRIC_PRESENTATION_REPRESENTATION (  '', ( #374 ), #391 ) ;
#378 = ORIENTED_EDGE ( 'NONE', *, *, #290, .T. ) ;
#379 = FACE_OUTER_BOUND ( 'NONE', #274, .T. ) ;
#380 = DIRECTION ( 'NONE',  ( -0.0000000000000000000, -0.0000000000000000000, 1.000000000000000000 ) ) ;
#381 = PRODUCT_DEFINITION_FORMATION_WITH_SPECIFIED_SOURCE ( 'ANY', '', #265, .NOT_KNOWN. ) ;
#382 = DIRECTION ( 'NONE',  ( 0.0000000000000000000, 1.000000000000000000, 0.0000000000000000000 ) ) ;
#383 = CARTESIAN_POINT ( 'NONE',  ( -180.0000000000000000, -180.0000000000000000, 0.0000000000000000000 ) ) ;
#384 = CARTESIAN_POINT ( 'NONE',  ( 99.00000000000001400, 0.0000000000000000000, -20.00000000000000000 ) ) ;
#385 = CIRCLE ( 'NONE', #171, 99.00000000000001400 ) ;
#386 = DIRECTION ( 'NONE',  ( 0.0000000000000000000, 1.000000000000000000, 0.0000000000000000000 ) ) ;
#387 = CARTESIAN_POINT ( 'NONE',  ( 180.0000000000000000, -180.0000000000000000, 0.0000000000000000000 ) ) ;
#388 = FILL_AREA_STYLE ('',( #55 ) ) ;
#389 = DIRECTION ( 'NONE',  ( -1.000000000000000000, -0.0000000000000000000, -0.0000000000000000000 ) ) ;
#390 = VERTEX_POINT ( 'NONE', #302 ) ;
#391 =( GEOMETRIC_REPRESENTATION_CONTEXT ( 3 ) GLOBAL_UNCERTAINTY_ASSIGNED_CONTEXT ( ( #217 ) ) GLOBAL_UNIT_ASSIGNED_CONTEXT ( ( #76, #396, #405 ) ) REPRESENTATION_CONTEXT ( 'NONE', 'WORKASPACE' ) );
#392 = COLOUR_RGB ( '',0.7529411764705882200, 0.7529411764705882200, 0.7529411764705882200 ) ;
#393 = PLANE ( 'NONE',  #355 ) ;
#394 = LINE ( 'NONE', #340, #334 ) ;
#395 = EDGE_LOOP ( 'NONE', ( #51, #23, #421, #225 ) ) ;
#396 =( NAMED_UNIT ( * ) PLANE_ANGLE_UNIT ( ) SI_UNIT ( $, .RADIAN. ) );
#397 = ORIENTED_EDGE ( 'NONE', *, *, #283, .F. ) ;
#398 = FACE_OUTER_BOUND ( 'NONE', #316, .T. ) ;
#399 = CARTESIAN_POINT ( 'NONE',  ( 155.0000000000000900, -195.0000000000000000, 130.0000000000000000 ) ) ;
#400 = PRODUCT_CONTEXT ( 'NONE', #358, 'mechanical' ) ;
#401 = LINE ( 'NONE', #249, #167 ) ;
#402 = APPLICATION_PROTOCOL_DEFINITION ( 'draft international standard', 'automotive_design', 1998, #362 ) ;
#403 = DIRECTION ( 'NONE',  ( -1.000000000000000000, -0.0000000000000000000, -0.0000000000000000000 ) ) ;
#404 = SURFACE_STYLE_FILL_AREA ( #388 ) ;
#405 =( NAMED_UNIT ( * ) SI_UNIT ( $, .STERADIAN. ) SOLID_ANGLE_UNIT ( ) );
#406 = LINE ( 'NONE', #189, #63 ) ;
#407 = PLANE ( 'NONE',  #70 ) ;
#408 = ORIENTED_EDGE ( 'NONE', *, *, #305, .F. ) ;
#409 = VERTEX_POINT ( 'NONE', #6 ) ;
#410 = PRODUCT_RELATED_PRODUCT_CATEGORY ( 'part', '', ( #265 ) ) ;
#411 = PLANE ( 'NONE',  #102 ) ;
#412 = DIRECTION ( 'NONE',  ( -0.0000000000000000000, -0.0000000000000000000, -1.000000000000000000 ) ) ;
#413 = ORIENTED_EDGE ( 'NONE', *, *, #319, .T. ) ;
#414 = PLANE ( 'NONE',  #216 ) ;
#415 = FACE_OUTER_BOUND ( 'NONE', #395, .T. ) ;
#416 = CIRCLE ( 'NONE', #364, 99.00000000000001400 ) ;
#417 = ORIENTED_EDGE ( 'NONE', *, *, #295, .T. ) ;
#418 = ORIENTED_EDGE ( 'NONE', *, *, #259, .F. ) ;
#419 = FILL_AREA_STYLE_COLOUR ( '', #82 ) ;
#420 = CARTESIAN_POINT ( 'NONE',  ( -155.0000000000000900, -195.0000000000000000, 130.0000000000000000 ) ) ;
#421 = ORIENTED_EDGE ( 'NONE', *, *, #270, .F. ) ;
#422 = FILL_AREA_STYLE ('',( #419 ) ) ;
#423 = EDGE_LOOP ( 'NONE', ( #253, #418, #93, #356 ) ) ;
#424 = FACE_OUTER_BOUND ( 'NONE', #210, .T. ) ;
ENDSEC;
END-ISO-10303-21;
