ISO-10303-21;
HEADER;
FILE_DESCRIPTION (( 'STEP AP214' ),
    '1' );
FILE_NAME ('AWV 20 S.STEP',
    '2018-05-12T14:43:30',
    ( 'CADnetwork' ),
    ( '' ),
    'SwSTEP 2.0',
    'SolidWorks 2014',
    '' );
FILE_SCHEMA (( 'AUTOMOTIVE_DESIGN' ));
ENDSEC;

DATA;
#1 = FACE_OUTER_BOUND ( 'NONE', #266, .T. ) ;
#2 = DIRECTION ( 'NONE',  ( 0.0000000000000000000, 0.0000000000000000000, -1.000000000000000000 ) ) ;
#3 = MANIFOLD_SOLID_BREP ( 'Aufsatz-Linear austragen3', #279 ) ;
#4 = FILL_AREA_STYLE_COLOUR ( '', #104 ) ;
#5 = ADVANCED_FACE ( 'NONE', ( #41 ), #174, .T. ) ;
#6 = DIRECTION ( 'NONE',  ( 1.000000000000000000, 0.0000000000000000000, 0.0000000000000000000 ) ) ;
#7 = AXIS2_PLACEMENT_3D ( 'NONE', #297, #299, #59 ) ;
#8 = DIRECTION ( 'NONE',  ( -0.0000000000000000000, -0.0000000000000000000, 1.000000000000000000 ) ) ;
#9 = FACE_OUTER_BOUND ( 'NONE', #169, .T. ) ;
#10 = CARTESIAN_POINT ( 'NONE',  ( -155.0000000000000900, -195.0000000000000000, 130.0000000000000000 ) ) ;
#11 = DIRECTION ( 'NONE',  ( -0.0000000000000000000, -0.0000000000000000000, 1.000000000000000000 ) ) ;
#12 = ORIENTED_EDGE ( 'NONE', *, *, #300, .T. ) ;
#13 = VECTOR ( 'NONE', #400, 1000.000000000000000 ) ;
#14 = ORIENTED_EDGE ( 'NONE', *, *, #239, .F. ) ;
#15 = AXIS2_PLACEMENT_3D ( 'NONE', #407, #8, #6 ) ;
#16 = ADVANCED_FACE ( 'NONE', ( #23 ), #293, .T. ) ;
#17 = AXIS2_PLACEMENT_3D ( 'NONE', #35, #39, #40 ) ;
#18 = FACE_OUTER_BOUND ( 'NONE', #320, .T. ) ;
#19 = DIRECTION ( 'NONE',  ( 0.0000000000000000000, 0.0000000000000000000, -1.000000000000000000 ) ) ;
#20 = CYLINDRICAL_SURFACE ( 'NONE', #15, 99.00000000000001400 ) ;
#21 = DIRECTION ( 'NONE',  ( 0.0000000000000000000, -0.5000000000000044400, 0.8660254037844361500 ) ) ;
#22 = CARTESIAN_POINT ( 'NONE',  ( 180.0000000000000000, 270.0000000000000000, 0.0000000000000000000 ) ) ;
#23 = FACE_OUTER_BOUND ( 'NONE', #222, .T. ) ;
#24 = DIRECTION ( 'NONE',  ( 1.000000000000000000, 0.0000000000000000000, 0.0000000000000000000 ) ) ;
#25 = ORIENTED_EDGE ( 'NONE', *, *, #331, .T. ) ;
#26 = LINE ( 'NONE', #395, #175 ) ;
#27 = DIRECTION ( 'NONE',  ( -1.000000000000000000, -0.0000000000000000000, -0.0000000000000000000 ) ) ;
#28 = CARTESIAN_POINT ( 'NONE',  ( 0.0000000000000000000, 0.0000000000000000000, -20.00000000000000000 ) ) ;
#29 = AXIS2_PLACEMENT_3D ( 'NONE', #190, #194, #203 ) ;
#30 = FACE_OUTER_BOUND ( 'NONE', #230, .T. ) ;
#31 = DIRECTION ( 'NONE',  ( 0.0000000000000000000, -0.0000000000000000000, 1.000000000000000000 ) ) ;
#32 = EDGE_LOOP ( 'NONE', ( #242, #246, #252, #271 ) ) ;
#33 = ADVANCED_BREP_SHAPE_REPRESENTATION ( 'AWV 20 S', ( #3, #312 ), #245 ) ;
#34 = CARTESIAN_POINT ( 'NONE',  ( -180.0000000000000000, 270.0000000000000000, 0.0000000000000000000 ) ) ;
#35 = CARTESIAN_POINT ( 'NONE',  ( 0.0000000000000000000, 0.0000000000000000000, -20.00000000000000000 ) ) ;
#36 = VECTOR ( 'NONE', #84, 1000.000000000000000 ) ;
#37 = ORIENTED_EDGE ( 'NONE', *, *, #253, .T. ) ;
#38 = CARTESIAN_POINT ( 'NONE',  ( -180.0000000000000000, 203.0273687740026400, 116.0000000000000000 ) ) ;
#39 = DIRECTION ( 'NONE',  ( 0.0000000000000000000, 0.0000000000000000000, -1.000000000000000000 ) ) ;
#40 = DIRECTION ( 'NONE',  ( -1.000000000000000000, 0.0000000000000000000, 0.0000000000000000000 ) ) ;
#41 = FACE_OUTER_BOUND ( 'NONE', #170, .T. ) ;
#42 = CARTESIAN_POINT ( 'NONE',  ( -99.00000000000001400, 1.212400331155879900E-014, -20.00000000000000000 ) ) ;
#43 = FACE_OUTER_BOUND ( 'NONE', #140, .T. ) ;
#44 = ADVANCED_FACE ( 'NONE', ( #18 ), #401, .F. ) ;
#45 = LINE ( 'NONE', #354, #415 ) ;
#46 = CARTESIAN_POINT ( 'NONE',  ( 180.0000000000000000, 203.0273687740026400, 116.0000000000000000 ) ) ;
#47 = AXIS2_PLACEMENT_3D ( 'NONE', #112, #399, #311 ) ;
#48 = VECTOR ( 'NONE', #344, 1000.000000000000000 ) ;
#49 = CARTESIAN_POINT ( 'NONE',  ( -155.0000000000000900, -180.0000000000000000, 130.0000000000000000 ) ) ;
#50 = CARTESIAN_POINT ( 'NONE',  ( -155.0000000000000900, -180.0000000000000000, 25.00000000000000700 ) ) ;
#51 = ORIENTED_EDGE ( 'NONE', *, *, #290, .T. ) ;
#52 = CARTESIAN_POINT ( 'NONE',  ( -180.0000000000000000, 270.0000000000000000, 0.0000000000000000000 ) ) ;
#53 = LINE ( 'NONE', #302, #48 ) ;
#54 = AXIS2_PLACEMENT_3D ( 'NONE', #95, #370, #263 ) ;
#55 =( LENGTH_UNIT ( ) NAMED_UNIT ( * ) SI_UNIT ( .MILLI., .METRE. ) );
#56 = CARTESIAN_POINT ( 'NONE',  ( 180.0000000000000000, -180.0000000000000000, 155.0000000000000000 ) ) ;
#57 = ORIENTED_EDGE ( 'NONE', *, *, #225, .T. ) ;
#58 = ORIENTED_EDGE ( 'NONE', *, *, #270, .F. ) ;
#59 = DIRECTION ( 'NONE',  ( 1.000000000000000000, 0.0000000000000000000, 0.0000000000000000000 ) ) ;
#60 = DIRECTION ( 'NONE',  ( 0.0000000000000000000, -0.5000000000000044400, 0.8660254037844361500 ) ) ;
#61 = SURFACE_SIDE_STYLE ('',( #192 ) ) ;
#62 = COLOUR_RGB ( '',0.7529411764705882200, 0.7529411764705882200, 0.7529411764705882200 ) ;
#63 = AXIS2_PLACEMENT_3D ( 'NONE', #255, #367, #150 ) ;
#64 = VERTEX_POINT ( 'NONE', #410 ) ;
#65 = DIRECTION ( 'NONE',  ( 0.0000000000000000000, -0.1012966630062163000, -0.9948562640219968900 ) ) ;
#66 =( NAMED_UNIT ( * ) SI_UNIT ( $, .STERADIAN. ) SOLID_ANGLE_UNIT ( ) );
#67 =( NAMED_UNIT ( * ) PLANE_ANGLE_UNIT ( ) SI_UNIT ( $, .RADIAN. ) );
#68 = CARTESIAN_POINT ( 'NONE',  ( 180.0000000000000000, 203.0273687740026400, 116.0000000000000000 ) ) ;
#69 = CARTESIAN_POINT ( 'NONE',  ( -155.0000000000000900, -195.0000000000000000, 130.0000000000000000 ) ) ;
#70 = LINE ( 'NONE', #296, #13 ) ;
#71 = CARTESIAN_POINT ( 'NONE',  ( -180.0000000000000000, 0.0000000000000000000, 0.0000000000000000000 ) ) ;
#72 = VECTOR ( 'NONE', #256, 1000.000000000000000 ) ;
#73 = AXIS2_PLACEMENT_3D ( 'NONE', #56, #421, #31 ) ;
#74 = LINE ( 'NONE', #371, #286 ) ;
#75 = CARTESIAN_POINT ( 'NONE',  ( 180.0000000000000000, -180.0000000000000000, 155.0000000000000000 ) ) ;
#76 = SURFACE_STYLE_USAGE ( .BOTH. , #61 ) ;
#77 = CARTESIAN_POINT ( 'NONE',  ( 155.0000000000000900, -195.0000000000000000, 25.00000000000000700 ) ) ;
#78 = EDGE_LOOP ( 'NONE', ( #51, #346, #424, #261 ) ) ;
#79 = CIRCLE ( 'NONE', #54, 99.00000000000001400 ) ;
#80 = PLANE ( 'NONE',  #47 ) ;
#81 = FACE_OUTER_BOUND ( 'NONE', #199, .T. ) ;
#82 = ORIENTED_EDGE ( 'NONE', *, *, #224, .F. ) ;
#83 = PRODUCT_DEFINITION_CONTEXT ( 'detailed design', #417, 'design' ) ;
#84 = DIRECTION ( 'NONE',  ( -0.0000000000000000000, 1.000000000000000000, -0.0000000000000000000 ) ) ;
#85 = CARTESIAN_POINT ( 'NONE',  ( 155.0000000000000900, -180.0000000000000000, 130.0000000000000000 ) ) ;
#86 = LINE ( 'NONE', #52, #409 ) ;
#87 = CARTESIAN_POINT ( 'NONE',  ( 180.0000000000000000, -180.0000000000000000, 155.0000000000000000 ) ) ;
#88 = PLANE ( 'NONE',  #91 ) ;
#89 = DIRECTION ( 'NONE',  ( 1.000000000000000000, 0.0000000000000000000, 0.0000000000000000000 ) ) ;
#90 = DIRECTION ( 'NONE',  ( -0.0000000000000000000, -0.0000000000000000000, 1.000000000000000000 ) ) ;
#91 = AXIS2_PLACEMENT_3D ( 'NONE', #10, #281, #188 ) ;
#92 = FACE_OUTER_BOUND ( 'NONE', #404, .T. ) ;
#93 = ORIENTED_EDGE ( 'NONE', *, *, #274, .T. ) ;
#94 = UNCERTAINTY_MEASURE_WITH_UNIT (LENGTH_MEASURE( 1.000000000000000100E-005 ), #356, 'distance_accuracy_value', 'NONE');
#95 = CARTESIAN_POINT ( 'NONE',  ( 0.0000000000000000000, 0.0000000000000000000, -20.00000000000000000 ) ) ;
#96 = FACE_BOUND ( 'NONE', #107, .T. ) ;
#97 = PRESENTATION_STYLE_ASSIGNMENT (( #268 ) ) ;
#98 = CARTESIAN_POINT ( 'NONE',  ( 180.0000000000000000, 270.0000000000000000, 0.0000000000000000000 ) ) ;
#99 = PRESENTATION_STYLE_ASSIGNMENT (( #76 ) ) ;
#100 = ORIENTED_EDGE ( 'NONE', *, *, #260, .F. ) ;
#101 = PRODUCT_DEFINITION_FORMATION_WITH_SPECIFIED_SOURCE ( 'ANY', '', #113, .NOT_KNOWN. ) ;
#102 = DIRECTION ( 'NONE',  ( -0.0000000000000000000, -0.0000000000000000000, 1.000000000000000000 ) ) ;
#103 = CARTESIAN_POINT ( 'NONE',  ( -180.0000000000000000, -180.0000000000000000, 155.0000000000000000 ) ) ;
#104 = COLOUR_RGB ( '',0.7529411764705882200, 0.7529411764705882200, 0.7529411764705882200 ) ;
#105 = AXIS2_PLACEMENT_3D ( 'NONE', #258, #102, #126 ) ;
#106 = LINE ( 'NONE', #303, #206 ) ;
#107 = EDGE_LOOP ( 'NONE', ( #282, #298 ) ) ;
#108 = ORIENTED_EDGE ( 'NONE', *, *, #224, .T. ) ;
#109 = AXIS2_PLACEMENT_3D ( 'NONE', #71, #121, #19 ) ;
#110 = EDGE_LOOP ( 'NONE', ( #412, #352, #357, #422 ) ) ;
#111 = ORIENTED_EDGE ( 'NONE', *, *, #275, .F. ) ;
#112 = CARTESIAN_POINT ( 'NONE',  ( -155.0000000000000900, -195.0000000000000000, 25.00000000000000700 ) ) ;
#113 = PRODUCT ( 'AWV 20 S', 'AWV 20 S', '', ( #144 ) ) ;
#114 = CARTESIAN_POINT ( 'NONE',  ( -155.0000000000000900, -180.0000000000000000, 130.0000000000000000 ) ) ;
#115 = VERTEX_POINT ( 'NONE', #42 ) ;
#116 = ORIENTED_EDGE ( 'NONE', *, *, #221, .F. ) ;
#117 = DIRECTION ( 'NONE',  ( -1.000000000000000000, -0.0000000000000000000, -0.0000000000000000000 ) ) ;
#118 = ORIENTED_EDGE ( 'NONE', *, *, #304, .T. ) ;
#119 = CARTESIAN_POINT ( 'NONE',  ( 180.0000000000000000, -180.0000000000000000, 155.0000000000000000 ) ) ;
#120 = LINE ( 'NONE', #251, #306 ) ;
#121 = DIRECTION ( 'NONE',  ( 1.000000000000000000, -0.0000000000000000000, 0.0000000000000000000 ) ) ;
#122 = ADVANCED_FACE ( 'NONE', ( #159 ), #237, .F. ) ;
#123 = CARTESIAN_POINT ( 'NONE',  ( 155.0000000000000900, -195.0000000000000000, 130.0000000000000000 ) ) ;
#124 = DIRECTION ( 'NONE',  ( -1.000000000000000000, -0.0000000000000000000, -0.0000000000000000000 ) ) ;
#125 = ORIENTED_EDGE ( 'NONE', *, *, #234, .T. ) ;
#126 = DIRECTION ( 'NONE',  ( 1.000000000000000000, 0.0000000000000000000, 0.0000000000000000000 ) ) ;
#127 = VERTEX_POINT ( 'NONE', #38 ) ;
#128 = AXIS2_PLACEMENT_3D ( 'NONE', #250, #24, #155 ) ;
#129 = VECTOR ( 'NONE', #228, 1000.000000000000000 ) ;
#130 = CARTESIAN_POINT ( 'NONE',  ( 0.0000000000000000000, -195.0000000000000000, 0.0000000000000000000 ) ) ;
#131 = ADVANCED_FACE ( 'NONE', ( #92 ), #151, .F. ) ;
#132 = VERTEX_POINT ( 'NONE', #98 ) ;
#133 = CIRCLE ( 'NONE', #7, 99.00000000000001400 ) ;
#134 = AXIS2_PLACEMENT_3D ( 'NONE', #257, #65, #248 ) ;
#135 = CARTESIAN_POINT ( 'NONE',  ( -155.0000000000000900, -195.0000000000000000, 130.0000000000000000 ) ) ;
#136 = ORIENTED_EDGE ( 'NONE', *, *, #269, .T. ) ;
#137 = DIRECTION ( 'NONE',  ( 0.0000000000000000000, -0.0000000000000000000, -1.000000000000000000 ) ) ;
#138 = CARTESIAN_POINT ( 'NONE',  ( -180.0000000000000000, -180.0000000000000000, 155.0000000000000000 ) ) ;
#139 = AXIS2_PLACEMENT_3D ( 'NONE', #28, #209, #341 ) ;
#140 = EDGE_LOOP ( 'NONE', ( #305, #318, #332, #339 ) ) ;
#141 = FACE_OUTER_BOUND ( 'NONE', #345, .T. ) ;
#142 = CARTESIAN_POINT ( 'NONE',  ( 155.0000000000000900, -195.0000000000000000, 130.0000000000000000 ) ) ;
#143 = FILL_AREA_STYLE ('',( #4 ) ) ;
#144 = PRODUCT_CONTEXT ( 'NONE', #386, 'mechanical' ) ;
#145 = ORIENTED_EDGE ( 'NONE', *, *, #317, .T. ) ;
#146 = VECTOR ( 'NONE', #181, 1000.000000000000000 ) ;
#147 = DIRECTION ( 'NONE',  ( 0.0000000000000000000, 0.0000000000000000000, -1.000000000000000000 ) ) ;
#148 = AXIS2_PLACEMENT_3D ( 'NONE', #130, #163, #137 ) ;
#149 = LINE ( 'NONE', #365, #233 ) ;
#150 = DIRECTION ( 'NONE',  ( 0.0000000000000000000, 0.0000000000000000000, -1.000000000000000000 ) ) ;
#151 = PLANE ( 'NONE',  #109 ) ;
#152 = ORIENTED_EDGE ( 'NONE', *, *, #234, .F. ) ;
#153 = VECTOR ( 'NONE', #362, 1000.000000000000000 ) ;
#154 = ADVANCED_FACE ( 'NONE', ( #141 ), #171, .T. ) ;
#155 = DIRECTION ( 'NONE',  ( 0.0000000000000000000, 0.0000000000000000000, -1.000000000000000000 ) ) ;
#156 = VECTOR ( 'NONE', #27, 1000.000000000000000 ) ;
#157 = VERTEX_POINT ( 'NONE', #135 ) ;
#158 = ADVANCED_FACE ( 'NONE', ( #9 ), #88, .F. ) ;
#159 = FACE_OUTER_BOUND ( 'NONE', #178, .T. ) ;
#160 = CARTESIAN_POINT ( 'NONE',  ( -180.0000000000000000, -180.0000000000000000, 0.0000000000000000000 ) ) ;
#161 =( NAMED_UNIT ( * ) PLANE_ANGLE_UNIT ( ) SI_UNIT ( $, .RADIAN. ) );
#162 = LINE ( 'NONE', #77, #36 ) ;
#163 = DIRECTION ( 'NONE',  ( 0.0000000000000000000, -1.000000000000000000, 0.0000000000000000000 ) ) ;
#164 = DIRECTION ( 'NONE',  ( 0.0000000000000000000, 0.0000000000000000000, -1.000000000000000000 ) ) ;
#165 = ORIENTED_EDGE ( 'NONE', *, *, #295, .T. ) ;
#166 = VECTOR ( 'NONE', #11, 1000.000000000000000 ) ;
#167 = ORIENTED_EDGE ( 'NONE', *, *, #239, .T. ) ;
#168 = FACE_OUTER_BOUND ( 'NONE', #418, .T. ) ;
#169 = EDGE_LOOP ( 'NONE', ( #180, #82, #267, #57 ) ) ;
#170 = EDGE_LOOP ( 'NONE', ( #309, #335, #273, #118 ) ) ;
#171 = CYLINDRICAL_SURFACE ( 'NONE', #105, 99.00000000000001400 ) ;
#172 = CARTESIAN_POINT ( 'NONE',  ( 180.0000000000000000, 270.0000000000000000, 0.0000000000000000000 ) ) ;
#173 = VERTEX_POINT ( 'NONE', #333 ) ;
#174 = PLANE ( 'NONE',  #148 ) ;
#175 = VECTOR ( 'NONE', #198, 1000.000000000000000 ) ;
#176 = ORIENTED_EDGE ( 'NONE', *, *, #291, .F. ) ;
#177 =( GEOMETRIC_REPRESENTATION_CONTEXT ( 3 ) GLOBAL_UNCERTAINTY_ASSIGNED_CONTEXT ( ( #193 ) ) GLOBAL_UNIT_ASSIGNED_CONTEXT ( ( #55, #161, #390 ) ) REPRESENTATION_CONTEXT ( 'NONE', 'WORKASPACE' ) );
#178 = EDGE_LOOP ( 'NONE', ( #25, #360, #100, #108 ) ) ;
#179 = CARTESIAN_POINT ( 'NONE',  ( -155.0000000000000900, -195.0000000000000000, 130.0000000000000000 ) ) ;
#180 = ORIENTED_EDGE ( 'NONE', *, *, #287, .T. ) ;
#181 = DIRECTION ( 'NONE',  ( -1.000000000000000000, -0.0000000000000000000, -0.0000000000000000000 ) ) ;
#182 = LINE ( 'NONE', #22, #218 ) ;
#183 = ORIENTED_EDGE ( 'NONE', *, *, #288, .F. ) ;
#184 = FILL_AREA_STYLE ('',( #411 ) ) ;
#185 = VERTEX_POINT ( 'NONE', #34 ) ;
#186 = VERTEX_POINT ( 'NONE', #138 ) ;
#187 = ORIENTED_EDGE ( 'NONE', *, *, #280, .T. ) ;
#188 = DIRECTION ( 'NONE',  ( -1.000000000000000000, 0.0000000000000000000, -0.0000000000000000000 ) ) ;
#189 = ORIENTED_EDGE ( 'NONE', *, *, #340, .T. ) ;
#190 = CARTESIAN_POINT ( 'NONE',  ( 0.0000000000000000000, 0.0000000000000000000, 0.0000000000000000000 ) ) ;
#191 = LINE ( 'NONE', #179, #129 ) ;
#192 = SURFACE_STYLE_FILL_AREA ( #143 ) ;
#193 = UNCERTAINTY_MEASURE_WITH_UNIT (LENGTH_MEASURE( 1.000000000000000100E-005 ), #55, 'distance_accuracy_value', 'NONE');
#194 = DIRECTION ( 'NONE',  ( -0.0000000000000000000, -0.0000000000000000000, -1.000000000000000000 ) ) ;
#195 = ORIENTED_EDGE ( 'NONE', *, *, #269, .F. ) ;
#196 = LINE ( 'NONE', #160, #72 ) ;
#197 = SURFACE_SIDE_STYLE ('',( #414 ) ) ;
#198 = DIRECTION ( 'NONE',  ( -0.0000000000000000000, 1.000000000000000000, -0.0000000000000000000 ) ) ;
#199 = EDGE_LOOP ( 'NONE', ( #319, #152, #145, #165 ) ) ;
#200 = ADVANCED_FACE ( 'NONE', ( #43, #343 ), #227, .F. ) ;
#201 = LINE ( 'NONE', #69, #359 ) ;
#202 = MECHANICAL_DESIGN_GEOMETRIC_PRESENTATION_REPRESENTATION (  '', ( #217 ), #177 ) ;
#203 = DIRECTION ( 'NONE',  ( 1.000000000000000000, 0.0000000000000000000, 0.0000000000000000000 ) ) ;
#204 = VECTOR ( 'NONE', #294, 1000.000000000000100 ) ;
#205 = VERTEX_POINT ( 'NONE', #376 ) ;
#206 = VECTOR ( 'NONE', #366, 1000.000000000000000 ) ;
#207 = CARTESIAN_POINT ( 'NONE',  ( 0.0000000000000000000, 0.0000000000000000000, 0.0000000000000000000 ) ) ;
#208 = CARTESIAN_POINT ( 'NONE',  ( 180.0000000000000000, 270.0000000000000000, 0.0000000000000000000 ) ) ;
#209 = DIRECTION ( 'NONE',  ( 0.0000000000000000000, 0.0000000000000000000, -1.000000000000000000 ) ) ;
#210 = ORIENTED_EDGE ( 'NONE', *, *, #313, .T. ) ;
#211 = CIRCLE ( 'NONE', #29, 99.00000000000001400 ) ;
#212 = DIRECTION ( 'NONE',  ( 1.000000000000000000, 0.0000000000000000000, 0.0000000000000000000 ) ) ;
#213 = PRESENTATION_LAYER_ASSIGNMENT (  '', '', ( #217 ) ) ;
#214 = VECTOR ( 'NONE', #147, 1000.000000000000000 ) ;
#215 = ORIENTED_EDGE ( 'NONE', *, *, #235, .F. ) ;
#216 = LINE ( 'NONE', #330, #204 ) ;
#217 = STYLED_ITEM ( 'NONE', ( #99 ), #3 ) ;
#218 = VECTOR ( 'NONE', #21, 1000.000000000000200 ) ;
#219 = ADVANCED_FACE ( 'NONE', ( #229 ), #226, .T. ) ;
#220 = VERTEX_POINT ( 'NONE', #68 ) ;
#221 = EDGE_CURVE ( 'NONE', #205, #289, #397, .T. ) ;
#222 = EDGE_LOOP ( 'NONE', ( #125, #136 ) ) ;
#223 = ADVANCED_FACE ( 'NONE', ( #1 ), #80, .F. ) ;
#224 = EDGE_CURVE ( 'NONE', #157, #238, #106, .T. ) ;
#225 = EDGE_CURVE ( 'NONE', #289, #264, #292, .T. ) ;
#226 = PLANE ( 'NONE',  #63 ) ;
#227 = PLANE ( 'NONE',  #73 ) ;
#228 = DIRECTION ( 'NONE',  ( -1.000000000000000000, -0.0000000000000000000, -0.0000000000000000000 ) ) ;
#229 = FACE_OUTER_BOUND ( 'NONE', #78, .T. ) ;
#230 = EDGE_LOOP ( 'NONE', ( #369, #326, #58, #12 ) ) ;
#231 = ORIENTED_EDGE ( 'NONE', *, *, #317, .F. ) ;
#232 = LINE ( 'NONE', #87, #214 ) ;
#233 = VECTOR ( 'NONE', #368, 1000.000000000000000 ) ;
#234 = EDGE_CURVE ( 'NONE', #254, #115, #79, .T. ) ;
#235 = EDGE_CURVE ( 'NONE', #64, #205, #120, .T. ) ;
#236 = LINE ( 'NONE', #172, #146 ) ;
#237 = PLANE ( 'NONE',  #128 ) ;
#238 = VERTEX_POINT ( 'NONE', #49 ) ;
#239 = EDGE_CURVE ( 'NONE', #205, #241, #162, .T. ) ;
#240 = CIRCLE ( 'NONE', #17, 99.00000000000001400 ) ;
#241 = VERTEX_POINT ( 'NONE', #387 ) ;
#242 = ORIENTED_EDGE ( 'NONE', *, *, #308, .T. ) ;
#243 = AXIS2_PLACEMENT_3D ( 'NONE', #382, #403, #406 ) ;
#244 = LINE ( 'NONE', #46, #156 ) ;
#245 =( GEOMETRIC_REPRESENTATION_CONTEXT ( 3 ) GLOBAL_UNCERTAINTY_ASSIGNED_CONTEXT ( ( #364 ) ) GLOBAL_UNIT_ASSIGNED_CONTEXT ( ( #402, #67, #66 ) ) REPRESENTATION_CONTEXT ( 'NONE', 'WORKASPACE' ) );
#246 = ORIENTED_EDGE ( 'NONE', *, *, #300, .F. ) ;
#247 = VECTOR ( 'NONE', #124, 1000.000000000000000 ) ;
#248 = DIRECTION ( 'NONE',  ( 0.0000000000000000000, 0.9948562640219967800, -0.1012966630062162900 ) ) ;
#249 = FACE_OUTER_BOUND ( 'NONE', #32, .T. ) ;
#250 = CARTESIAN_POINT ( 'NONE',  ( -155.0000000000000900, -195.0000000000000000, 130.0000000000000000 ) ) ;
#251 = CARTESIAN_POINT ( 'NONE',  ( -155.0000000000000900, -195.0000000000000000, 25.00000000000000700 ) ) ;
#252 = ORIENTED_EDGE ( 'NONE', *, *, #336, .F. ) ;
#253 = EDGE_CURVE ( 'NONE', #64, #173, #26, .T. ) ;
#254 = VERTEX_POINT ( 'NONE', #385 ) ;
#255 = CARTESIAN_POINT ( 'NONE',  ( 180.0000000000000000, 0.0000000000000000000, 0.0000000000000000000 ) ) ;
#256 = DIRECTION ( 'NONE',  ( 0.0000000000000000000, 1.000000000000000000, 0.0000000000000000000 ) ) ;
#257 = CARTESIAN_POINT ( 'NONE',  ( 180.0000000000000000, 203.0273687740026400, 116.0000000000000000 ) ) ;
#258 = CARTESIAN_POINT ( 'NONE',  ( 0.0000000000000000000, 0.0000000000000000000, -20.00000000000000000 ) ) ;
#259 = DIRECTION ( 'NONE',  ( 1.000000000000000000, 0.0000000000000000000, 0.0000000000000000000 ) ) ;
#260 = EDGE_CURVE ( 'NONE', #157, #64, #201, .T. ) ;
#261 = ORIENTED_EDGE ( 'NONE', *, *, #327, .T. ) ;
#262 = SHAPE_DEFINITION_REPRESENTATION ( #307, #33 ) ;
#263 = DIRECTION ( 'NONE',  ( -1.000000000000000000, 0.0000000000000000000, 0.0000000000000000000 ) ) ;
#264 = VERTEX_POINT ( 'NONE', #384 ) ;
#265 = ADVANCED_FACE ( 'NONE', ( #81 ), #20, .T. ) ;
#266 = EDGE_LOOP ( 'NONE', ( #187, #14, #215, #37 ) ) ;
#267 = ORIENTED_EDGE ( 'NONE', *, *, #304, .F. ) ;
#268 = SURFACE_STYLE_USAGE ( .BOTH. , #197 ) ;
#269 = EDGE_CURVE ( 'NONE', #115, #254, #240, .T. ) ;
#270 = EDGE_CURVE ( 'NONE', #132, #220, #182, .T. ) ;
#271 = ORIENTED_EDGE ( 'NONE', *, *, #337, .T. ) ;
#272 = LINE ( 'NONE', #103, #315 ) ;
#273 = ORIENTED_EDGE ( 'NONE', *, *, #221, .T. ) ;
#274 = EDGE_CURVE ( 'NONE', #220, #127, #244, .T. ) ;
#275 = EDGE_CURVE ( 'NONE', #185, #127, #86, .T. ) ;
#276 = LINE ( 'NONE', #355, #348 ) ;
#277 = VERTEX_POINT ( 'NONE', #75 ) ;
#278 = VECTOR ( 'NONE', #117, 1000.000000000000000 ) ;
#279 = CLOSED_SHELL ( 'NONE', ( #154, #416, #200, #324, #44, #219, #131, #122, #223, #419, #158, #5, #265, #16 ) ) ;
#280 = EDGE_CURVE ( 'NONE', #173, #241, #353, .T. ) ;
#281 = DIRECTION ( 'NONE',  ( 0.0000000000000000000, 0.0000000000000000000, -1.000000000000000000 ) ) ;
#282 = ORIENTED_EDGE ( 'NONE', *, *, #295, .F. ) ;
#283 = LINE ( 'NONE', #119, #247 ) ;
#284 = ORIENTED_EDGE ( 'NONE', *, *, #338, .T. ) ;
#285 = EDGE_CURVE ( 'NONE', #241, #264, #380, .T. ) ;
#286 = VECTOR ( 'NONE', #374, 1000.000000000000100 ) ;
#287 = EDGE_CURVE ( 'NONE', #264, #238, #413, .T. ) ;
#288 = EDGE_CURVE ( 'NONE', #277, #186, #283, .T. ) ;
#289 = VERTEX_POINT ( 'NONE', #123 ) ;
#290 = EDGE_CURVE ( 'NONE', #277, #398, #232, .T. ) ;
#291 = EDGE_CURVE ( 'NONE', #186, #396, #272, .T. ) ;
#292 = LINE ( 'NONE', #310, #153 ) ;
#293 = PLANE ( 'NONE',  #139 ) ;
#294 = DIRECTION ( 'NONE',  ( 0.0000000000000000000, -0.9948562640219967800, 0.1012966630062162700 ) ) ;
#295 = EDGE_CURVE ( 'NONE', #381, #408, #211, .T. ) ;
#296 = CARTESIAN_POINT ( 'NONE',  ( 99.00000000000001400, 0.0000000000000000000, -20.00000000000000000 ) ) ;
#297 = CARTESIAN_POINT ( 'NONE',  ( 0.0000000000000000000, 0.0000000000000000000, 0.0000000000000000000 ) ) ;
#298 = ORIENTED_EDGE ( 'NONE', *, *, #313, .F. ) ;
#299 = DIRECTION ( 'NONE',  ( -0.0000000000000000000, -0.0000000000000000000, -1.000000000000000000 ) ) ;
#300 = EDGE_CURVE ( 'NONE', #132, #185, #236, .T. ) ;
#301 = ORIENTED_EDGE ( 'NONE', *, *, #225, .F. ) ;
#302 = CARTESIAN_POINT ( 'NONE',  ( 180.0000000000000000, -180.0000000000000000, 0.0000000000000000000 ) ) ;
#303 = CARTESIAN_POINT ( 'NONE',  ( -155.0000000000000900, -195.0000000000000000, 130.0000000000000000 ) ) ;
#304 = EDGE_CURVE ( 'NONE', #289, #157, #191, .T. ) ;
#305 = ORIENTED_EDGE ( 'NONE', *, *, #291, .T. ) ;
#306 = VECTOR ( 'NONE', #259, 1000.000000000000000 ) ;
#307 = PRODUCT_DEFINITION_SHAPE ( 'NONE', 'NONE',  #342 ) ;
#308 = EDGE_CURVE ( 'NONE', #396, #185, #196, .T. ) ;
#309 = ORIENTED_EDGE ( 'NONE', *, *, #260, .T. ) ;
#310 = CARTESIAN_POINT ( 'NONE',  ( 155.0000000000000900, -195.0000000000000000, 130.0000000000000000 ) ) ;
#311 = DIRECTION ( 'NONE',  ( 1.000000000000000000, 0.0000000000000000000, 0.0000000000000000000 ) ) ;
#312 = AXIS2_PLACEMENT_3D ( 'NONE', #207, #423, #212 ) ;
#313 = EDGE_CURVE ( 'NONE', #408, #381, #133, .T. ) ;
#314 = PLANE ( 'NONE',  #328 ) ;
#315 = VECTOR ( 'NONE', #164, 1000.000000000000000 ) ;
#316 =( GEOMETRIC_REPRESENTATION_CONTEXT ( 3 ) GLOBAL_UNCERTAINTY_ASSIGNED_CONTEXT ( ( #94 ) ) GLOBAL_UNIT_ASSIGNED_CONTEXT ( ( #356, #392, #350 ) ) REPRESENTATION_CONTEXT ( 'NONE', 'WORKASPACE' ) );
#317 = EDGE_CURVE ( 'NONE', #254, #381, #70, .T. ) ;
#318 = ORIENTED_EDGE ( 'NONE', *, *, #337, .F. ) ;
#319 = ORIENTED_EDGE ( 'NONE', *, *, #340, .F. ) ;
#320 = EDGE_LOOP ( 'NONE', ( #284, #183, #405, #93 ) ) ;
#321 = MECHANICAL_DESIGN_GEOMETRIC_PRESENTATION_REPRESENTATION (  '', ( #351 ), #316 ) ;
#322 = DIRECTION ( 'NONE',  ( 0.0000000000000000000, -0.8660254037844361500, -0.5000000000000044400 ) ) ;
#323 = PRESENTATION_LAYER_ASSIGNMENT (  '', '', ( #351 ) ) ;
#324 = ADVANCED_FACE ( 'NONE', ( #30 ), #314, .F. ) ;
#325 = VECTOR ( 'NONE', #90, 1000.000000000000000 ) ;
#326 = ORIENTED_EDGE ( 'NONE', *, *, #274, .F. ) ;
#327 = EDGE_CURVE ( 'NONE', #220, #277, #216, .T. ) ;
#328 = AXIS2_PLACEMENT_3D ( 'NONE', #208, #322, #329 ) ;
#329 = DIRECTION ( 'NONE',  ( 0.0000000000000000000, 0.5000000000000044400, -0.8660254037844361500 ) ) ;
#330 = CARTESIAN_POINT ( 'NONE',  ( 180.0000000000000000, 203.0273687740026400, 116.0000000000000000 ) ) ;
#331 = EDGE_CURVE ( 'NONE', #238, #173, #45, .T. ) ;
#332 = ORIENTED_EDGE ( 'NONE', *, *, #290, .F. ) ;
#333 = CARTESIAN_POINT ( 'NONE',  ( -155.0000000000001400, -180.0000000000000000, 24.99999999999999300 ) ) ;
#334 = VECTOR ( 'NONE', #89, 1000.000000000000000 ) ;
#335 = ORIENTED_EDGE ( 'NONE', *, *, #235, .T. ) ;
#336 = EDGE_CURVE ( 'NONE', #398, #132, #53, .T. ) ;
#337 = EDGE_CURVE ( 'NONE', #398, #396, #149, .T. ) ;
#338 = EDGE_CURVE ( 'NONE', #127, #186, #74, .T. ) ;
#339 = ORIENTED_EDGE ( 'NONE', *, *, #288, .T. ) ;
#340 = EDGE_CURVE ( 'NONE', #115, #408, #276, .T. ) ;
#341 = DIRECTION ( 'NONE',  ( -1.000000000000000000, 0.0000000000000000000, -0.0000000000000000000 ) ) ;
#342 = PRODUCT_DEFINITION ( 'UNKNOWN', '', #101, #83 ) ;
#343 = FACE_BOUND ( 'NONE', #110, .T. ) ;
#344 = DIRECTION ( 'NONE',  ( 0.0000000000000000000, 1.000000000000000000, 0.0000000000000000000 ) ) ;
#345 = EDGE_LOOP ( 'NONE', ( #195, #189, #210, #231 ) ) ;
#346 = ORIENTED_EDGE ( 'NONE', *, *, #336, .T. ) ;
#347 = PRODUCT_RELATED_PRODUCT_CATEGORY ( 'part', '', ( #113 ) ) ;
#348 = VECTOR ( 'NONE', #375, 1000.000000000000000 ) ;
#349 = AXIS2_PLACEMENT_3D ( 'NONE', #383, #389, #391 ) ;
#350 =( NAMED_UNIT ( * ) SI_UNIT ( $, .STERADIAN. ) SOLID_ANGLE_UNIT ( ) );
#351 = STYLED_ITEM ( 'NONE', ( #97 ), #33 ) ;
#352 = ORIENTED_EDGE ( 'NONE', *, *, #287, .F. ) ;
#353 = LINE ( 'NONE', #50, #334 ) ;
#354 = CARTESIAN_POINT ( 'NONE',  ( -155.0000000000000900, -180.0000000000000000, 130.0000000000000000 ) ) ;
#355 = CARTESIAN_POINT ( 'NONE',  ( -99.00000000000001400, 1.212400331155879900E-014, -20.00000000000000000 ) ) ;
#356 =( LENGTH_UNIT ( ) NAMED_UNIT ( * ) SI_UNIT ( .MILLI., .METRE. ) );
#357 = ORIENTED_EDGE ( 'NONE', *, *, #285, .F. ) ;
#358 = DIRECTION ( 'NONE',  ( 0.0000000000000000000, 0.0000000000000000000, -1.000000000000000000 ) ) ;
#359 = VECTOR ( 'NONE', #2, 1000.000000000000000 ) ;
#360 = ORIENTED_EDGE ( 'NONE', *, *, #253, .F. ) ;
#361 = ORIENTED_EDGE ( 'NONE', *, *, #308, .F. ) ;
#362 = DIRECTION ( 'NONE',  ( -0.0000000000000000000, 1.000000000000000000, -0.0000000000000000000 ) ) ;
#363 = CARTESIAN_POINT ( 'NONE',  ( -180.0000000000000000, -180.0000000000000000, 0.0000000000000000000 ) ) ;
#364 = UNCERTAINTY_MEASURE_WITH_UNIT (LENGTH_MEASURE( 1.000000000000000100E-005 ), #402, 'distance_accuracy_value', 'NONE');
#365 = CARTESIAN_POINT ( 'NONE',  ( 180.0000000000000000, -180.0000000000000000, 0.0000000000000000000 ) ) ;
#366 = DIRECTION ( 'NONE',  ( -0.0000000000000000000, 1.000000000000000000, -0.0000000000000000000 ) ) ;
#367 = DIRECTION ( 'NONE',  ( 1.000000000000000000, -0.0000000000000000000, 0.0000000000000000000 ) ) ;
#368 = DIRECTION ( 'NONE',  ( -1.000000000000000000, -0.0000000000000000000, -0.0000000000000000000 ) ) ;
#369 = ORIENTED_EDGE ( 'NONE', *, *, #275, .T. ) ;
#370 = DIRECTION ( 'NONE',  ( 0.0000000000000000000, 0.0000000000000000000, -1.000000000000000000 ) ) ;
#371 = CARTESIAN_POINT ( 'NONE',  ( -180.0000000000000000, 203.0273687740026400, 116.0000000000000000 ) ) ;
#372 = APPLICATION_PROTOCOL_DEFINITION ( 'draft international standard', 'automotive_design', 1998, #386 ) ;
#373 = CARTESIAN_POINT ( 'NONE',  ( -99.00000000000001400, 1.212400331155879900E-014, 0.0000000000000000000 ) ) ;
#374 = DIRECTION ( 'NONE',  ( 0.0000000000000000000, -0.9948562640219967800, 0.1012966630062162700 ) ) ;
#375 = DIRECTION ( 'NONE',  ( -0.0000000000000000000, -0.0000000000000000000, 1.000000000000000000 ) ) ;
#376 = CARTESIAN_POINT ( 'NONE',  ( 155.0000000000000900, -195.0000000000000000, 25.00000000000000700 ) ) ;
#377 = CARTESIAN_POINT ( 'NONE',  ( 99.00000000000001400, 0.0000000000000000000, 0.0000000000000000000 ) ) ;
#378 = CARTESIAN_POINT ( 'NONE',  ( 180.0000000000000000, -180.0000000000000000, 0.0000000000000000000 ) ) ;
#379 = PLANE ( 'NONE',  #243 ) ;
#380 = LINE ( 'NONE', #85, #325 ) ;
#381 = VERTEX_POINT ( 'NONE', #377 ) ;
#382 = CARTESIAN_POINT ( 'NONE',  ( 155.0000000000000900, -195.0000000000000000, 130.0000000000000000 ) ) ;
#383 = CARTESIAN_POINT ( 'NONE',  ( 180.0000000000000000, -180.0000000000000000, 0.0000000000000000000 ) ) ;
#384 = CARTESIAN_POINT ( 'NONE',  ( 155.0000000000000900, -180.0000000000000000, 130.0000000000000000 ) ) ;
#385 = CARTESIAN_POINT ( 'NONE',  ( 99.00000000000001400, 0.0000000000000000000, -20.00000000000000000 ) ) ;
#386 = APPLICATION_CONTEXT ( 'automotive_design' ) ;
#387 = CARTESIAN_POINT ( 'NONE',  ( 155.0000000000000900, -180.0000000000000000, 25.00000000000002100 ) ) ;
#388 = PLANE ( 'NONE',  #349 ) ;
#389 = DIRECTION ( 'NONE',  ( 0.0000000000000000000, 0.0000000000000000000, 1.000000000000000000 ) ) ;
#390 =( NAMED_UNIT ( * ) SI_UNIT ( $, .STERADIAN. ) SOLID_ANGLE_UNIT ( ) );
#391 = DIRECTION ( 'NONE',  ( 1.000000000000000000, 0.0000000000000000000, -0.0000000000000000000 ) ) ;
#392 =( NAMED_UNIT ( * ) PLANE_ANGLE_UNIT ( ) SI_UNIT ( $, .RADIAN. ) );
#393 = ORIENTED_EDGE ( 'NONE', *, *, #338, .F. ) ;
#394 = ORIENTED_EDGE ( 'NONE', *, *, #285, .T. ) ;
#395 = CARTESIAN_POINT ( 'NONE',  ( -155.0000000000000900, -195.0000000000000000, 25.00000000000000700 ) ) ;
#396 = VERTEX_POINT ( 'NONE', #363 ) ;
#397 = LINE ( 'NONE', #142, #166 ) ;
#398 = VERTEX_POINT ( 'NONE', #378 ) ;
#399 = DIRECTION ( 'NONE',  ( -0.0000000000000000000, 0.0000000000000000000, 1.000000000000000000 ) ) ;
#400 = DIRECTION ( 'NONE',  ( -0.0000000000000000000, -0.0000000000000000000, 1.000000000000000000 ) ) ;
#401 = PLANE ( 'NONE',  #134 ) ;
#402 =( LENGTH_UNIT ( ) NAMED_UNIT ( * ) SI_UNIT ( .MILLI., .METRE. ) );
#403 = DIRECTION ( 'NONE',  ( -1.000000000000000000, 0.0000000000000000000, -0.0000000000000000000 ) ) ;
#404 = EDGE_LOOP ( 'NONE', ( #176, #393, #111, #361 ) ) ;
#405 = ORIENTED_EDGE ( 'NONE', *, *, #327, .F. ) ;
#406 = DIRECTION ( 'NONE',  ( -0.0000000000000000000, 0.0000000000000000000, 1.000000000000000000 ) ) ;
#407 = CARTESIAN_POINT ( 'NONE',  ( 0.0000000000000000000, 0.0000000000000000000, -20.00000000000000000 ) ) ;
#408 = VERTEX_POINT ( 'NONE', #373 ) ;
#409 = VECTOR ( 'NONE', #60, 1000.000000000000200 ) ;
#410 = CARTESIAN_POINT ( 'NONE',  ( -155.0000000000000900, -195.0000000000000000, 25.00000000000000700 ) ) ;
#411 = FILL_AREA_STYLE_COLOUR ( '', #62 ) ;
#412 = ORIENTED_EDGE ( 'NONE', *, *, #331, .F. ) ;
#413 = LINE ( 'NONE', #114, #278 ) ;
#414 = SURFACE_STYLE_FILL_AREA ( #184 ) ;
#415 = VECTOR ( 'NONE', #358, 1000.000000000000000 ) ;
#416 = ADVANCED_FACE ( 'NONE', ( #249, #96 ), #388, .F. ) ;
#417 = APPLICATION_CONTEXT ( 'automotive_design' ) ;
#418 = EDGE_LOOP ( 'NONE', ( #394, #301, #116, #167 ) ) ;
#419 = ADVANCED_FACE ( 'NONE', ( #168 ), #379, .F. ) ;
#420 = APPLICATION_PROTOCOL_DEFINITION ( 'draft international standard', 'automotive_design', 1998, #417 ) ;
#421 = DIRECTION ( 'NONE',  ( -0.0000000000000000000, 1.000000000000000000, 0.0000000000000000000 ) ) ;
#422 = ORIENTED_EDGE ( 'NONE', *, *, #280, .F. ) ;
#423 = DIRECTION ( 'NONE',  ( 0.0000000000000000000, 0.0000000000000000000, 1.000000000000000000 ) ) ;
#424 = ORIENTED_EDGE ( 'NONE', *, *, #270, .T. ) ;
ENDSEC;
END-ISO-10303-21;
