ISO-10303-21;
HEADER;
FILE_DESCRIPTION (( 'STEP AP203' ),
    '1' );
FILE_NAME ('5SU1057_ Anti vibration mount.STEP',
    '2022-03-10T13:59:33',
    ( '' ),
    ( '' ),
    'SwSTEP 2.0',
    'SolidWorks 2018',
    '' );
FILE_SCHEMA (( 'CONFIG_CONTROL_DESIGN' ));
ENDSEC;

DATA;
#1 = CYLINDRICAL_SURFACE ( 'NONE', #366, 4.000000000000000000 ) ;
#2 = PLANE ( 'NONE',  #122 ) ;
#3 = EDGE_LOOP ( 'NONE', ( #127, #267, #203, #293 ) ) ;
#4 = DIRECTION ( 'NONE',  ( -0.000000000000000000, -0.000000000000000000, -1.000000000000000000 ) ) ;
#5 = LINE ( 'NONE', #176, #356 ) ;
#6 = ORIENTED_EDGE ( 'NONE', *, *, #362, .F. ) ;
#7 = CARTESIAN_POINT ( 'NONE',  ( 0.000000000000000000, 0.000000000000000000, 8.000000000000000000 ) ) ;
#8 = EDGE_CURVE ( 'NONE', #215, #329, #227, .T. ) ;
#9 = DIRECTION ( 'NONE',  ( 0.000000000000000000, 0.000000000000000000, -1.000000000000000000 ) ) ;
#10 = EDGE_LOOP ( 'NONE', ( #69, #143 ) ) ;
#11 = DIRECTION ( 'NONE',  ( 0.000000000000000000, 0.000000000000000000, -1.000000000000000000 ) ) ;
#12 = CARTESIAN_POINT ( 'NONE',  ( 0.000000000000000000, 0.000000000000000000, 42.49999999999999289 ) ) ;
#13 = AXIS2_PLACEMENT_3D ( 'NONE', #270, #361, #119 ) ;
#14 = PLANE ( 'NONE',  #324 ) ;
#15 = PERSON_AND_ORGANIZATION ( #177, #379 ) ;
#16 = CC_DESIGN_APPROVAL ( #73, ( #254 ) ) ;
#17 = ORIENTED_EDGE ( 'NONE', *, *, #88, .F. ) ;
#18 = CARTESIAN_POINT ( 'NONE',  ( 4.000000000000000000, 4.898587196589412829E-16, 8.000000000000000000 ) ) ;
#19 = EDGE_CURVE ( 'NONE', #139, #26, #233, .T. ) ;
#20 = APPROVAL_STATUS ( 'not_yet_approved' ) ;
#21 = APPLICATION_PROTOCOL_DEFINITION ( 'international standard', 'config_control_design', 1994, #193 ) ;
#22 = FACE_BOUND ( 'NONE', #257, .T. ) ;
#23 = CYLINDRICAL_SURFACE ( 'NONE', #357, 4.000000000000000000 ) ;
#24 = APPLICATION_PROTOCOL_DEFINITION ( 'international standard', 'config_control_design', 1994, #163 ) ;
#25 = DATE_TIME_ROLE ( 'classification_date' ) ;
#26 = VERTEX_POINT ( 'NONE', #204 ) ;
#27 = VERTEX_POINT ( 'NONE', #174 ) ;
#28 = UNCERTAINTY_MEASURE_WITH_UNIT (LENGTH_MEASURE( 1.000000000000000082E-05 ), #305, 'distance_accuracy_value', 'NONE');
#29 = CC_DESIGN_SECURITY_CLASSIFICATION ( #229, ( #150 ) ) ;
#30 = ADVANCED_FACE ( 'NONE', ( #197 ), #23, .F. ) ;
#31 = CARTESIAN_POINT ( 'NONE',  ( 3.500000000000003109, 4.286263797015740046E-16, 43.00000000000000000 ) ) ;
#32 = FACE_OUTER_BOUND ( 'NONE', #128, .T. ) ;
#33 = EDGE_CURVE ( 'NONE', #376, #63, #325, .T. ) ;
#34 = AXIS2_PLACEMENT_3D ( 'NONE', #46, #11, #250 ) ;
#35 = VECTOR ( 'NONE', #236, 1000.000000000000000 ) ;
#36 = EDGE_LOOP ( 'NONE', ( #117, #278 ) ) ;
#37 = DIRECTION ( 'NONE',  ( 1.000000000000000000, 0.000000000000000000, 0.000000000000000000 ) ) ;
#38 = DIRECTION ( 'NONE',  ( -0.000000000000000000, -0.000000000000000000, -1.000000000000000000 ) ) ;
#39 = LOCAL_TIME ( 14, 59, 33.00000000000000000, #191 ) ;
#40 = CIRCLE ( 'NONE', #315, 15.00000000000000000 ) ;
#41 = CARTESIAN_POINT ( 'NONE',  ( 0.000000000000000000, 0.000000000000000000, 43.00000000000000000 ) ) ;
#42 = CARTESIAN_POINT ( 'NONE',  ( 0.000000000000000000, 0.000000000000000000, 8.000000000000000000 ) ) ;
#43 = ORIENTED_EDGE ( 'NONE', *, *, #19, .T. ) ;
#44 = ORIENTED_EDGE ( 'NONE', *, *, #136, .F. ) ;
#45 = DIRECTION ( 'NONE',  ( 1.000000000000000000, 0.000000000000000000, -0.000000000000000000 ) ) ;
#46 = CARTESIAN_POINT ( 'NONE',  ( 0.000000000000000000, 0.000000000000000000, 0.000000000000000000 ) ) ;
#47 = DIRECTION ( 'NONE',  ( -1.000000000000000000, 0.000000000000000000, 0.000000000000000000 ) ) ;
#48 = FACE_OUTER_BOUND ( 'NONE', #237, .T. ) ;
#49 = ADVANCED_BREP_SHAPE_REPRESENTATION ( '5SU1057_ Anti vibration mount', ( #226, #195 ), #385 ) ;
#50 = PRODUCT_RELATED_PRODUCT_CATEGORY ( 'detail', '', ( #380 ) ) ;
#51 = PERSON_AND_ORGANIZATION_ROLE ( 'creator' ) ;
#52 = ORIENTED_EDGE ( 'NONE', *, *, #298, .T. ) ;
#53 = EDGE_LOOP ( 'NONE', ( #247, #96, #209, #151 ) ) ;
#54 = ORIENTED_EDGE ( 'NONE', *, *, #284, .T. ) ;
#55 = AXIS2_PLACEMENT_3D ( 'NONE', #121, #9, #336 ) ;
#56 = PERSON_AND_ORGANIZATION_ROLE ( 'design_owner' ) ;
#57 = CC_DESIGN_PERSON_AND_ORGANIZATION_ASSIGNMENT ( #133, #286, ( #254 ) ) ;
#58 = CALENDAR_DATE ( 2022, 10, 3 ) ;
#59 = DIRECTION ( 'NONE',  ( 0.000000000000000000, 0.000000000000000000, -1.000000000000000000 ) ) ;
#60 = CC_DESIGN_PERSON_AND_ORGANIZATION_ASSIGNMENT ( #220, #56, ( #380 ) ) ;
#61 = CARTESIAN_POINT ( 'NONE',  ( -4.000000000000000000, 0.000000000000000000, 8.000000000000000000 ) ) ;
#62 = FACE_OUTER_BOUND ( 'NONE', #53, .T. ) ;
#63 = VERTEX_POINT ( 'NONE', #61 ) ;
#64 = VERTEX_POINT ( 'NONE', #65 ) ;
#65 = CARTESIAN_POINT ( 'NONE',  ( -4.000000000000000000, 0.000000000000000000, 0.000000000000000000 ) ) ;
#66 = CARTESIAN_POINT ( 'NONE',  ( 0.000000000000000000, 0.000000000000000000, 43.00000000000000000 ) ) ;
#67 = APPROVAL_PERSON_ORGANIZATION ( #219, #335, #77 ) ;
#68 = LOCAL_TIME ( 14, 59, 33.00000000000000000, #125 ) ;
#69 = ORIENTED_EDGE ( 'NONE', *, *, #327, .T. ) ;
#70 = CIRCLE ( 'NONE', #162, 15.00000000000000000 ) ;
#71 = EDGE_LOOP ( 'NONE', ( #165, #138 ) ) ;
#72 = DIRECTION ( 'NONE',  ( 1.000000000000000000, 0.000000000000000000, 0.000000000000000000 ) ) ;
#73 = APPROVAL ( #283, 'NON SPECIFICATO' ) ;
#74 = CC_DESIGN_DATE_AND_TIME_ASSIGNMENT ( #363, #161, ( #254 ) ) ;
#75 = CONICAL_SURFACE ( 'NONE', #98, 3.500000000000003109, 0.7853981633974447263 ) ;
#76 = ORIENTED_EDGE ( 'NONE', *, *, #8, .F. ) ;
#77 = APPROVAL_ROLE ( '' ) ;
#78 = CIRCLE ( 'NONE', #348, 4.000000000000000000 ) ;
#79 = EDGE_CURVE ( 'NONE', #27, #160, #40, .T. ) ;
#80 = FACE_OUTER_BOUND ( 'NONE', #36, .T. ) ;
#81 = DATE_AND_TIME ( #328, #288 ) ;
#82 = ADVANCED_FACE ( 'NONE', ( #111 ), #105, .T. ) ;
#83 = AXIS2_PLACEMENT_3D ( 'NONE', #291, #59, #294 ) ;
#84 = DIRECTION ( 'NONE',  ( 0.000000000000000000, 0.000000000000000000, 1.000000000000000000 ) ) ;
#85 = CIRCLE ( 'NONE', #91, 4.000000000000000000 ) ;
#86 = ORIENTED_EDGE ( 'NONE', *, *, #280, .F. ) ;
#87 = CARTESIAN_POINT ( 'NONE',  ( 15.00000000000000000, 1.836970198721029589E-15, 0.000000000000000000 ) ) ;
#88 = EDGE_CURVE ( 'NONE', #115, #101, #349, .T. ) ;
#89 = CARTESIAN_POINT ( 'NONE',  ( 0.000000000000000000, 0.000000000000000000, 20.00000000000000000 ) ) ;
#90 = ORIENTED_EDGE ( 'NONE', *, *, #339, .T. ) ;
#91 = AXIS2_PLACEMENT_3D ( 'NONE', #277, #243, #72 ) ;
#92 = CARTESIAN_POINT ( 'NONE',  ( 0.000000000000000000, 0.000000000000000000, 43.00000000000000000 ) ) ;
#93 = DIRECTION ( 'NONE',  ( -0.000000000000000000, -0.000000000000000000, -1.000000000000000000 ) ) ;
#94 = SHAPE_DEFINITION_REPRESENTATION ( #334, #49 ) ;
#95 = DIRECTION ( 'NONE',  ( 0.000000000000000000, 0.000000000000000000, 1.000000000000000000 ) ) ;
#96 = ORIENTED_EDGE ( 'NONE', *, *, #88, .T. ) ;
#97 = PLANE ( 'NONE',  #131 ) ;
#98 = AXIS2_PLACEMENT_3D ( 'NONE', #310, #99, #134 ) ;
#99 = DIRECTION ( 'NONE',  ( 0.000000000000000000, 0.000000000000000000, -1.000000000000000000 ) ) ;
#100 = CARTESIAN_POINT ( 'NONE',  ( -4.000000000000000000, 0.000000000000000000, 20.00000000000000000 ) ) ;
#101 = VERTEX_POINT ( 'NONE', #262 ) ;
#102 = ORIENTED_EDGE ( 'NONE', *, *, #311, .T. ) ;
#103 = DIRECTION ( 'NONE',  ( 0.000000000000000000, 0.000000000000000000, 1.000000000000000000 ) ) ;
#104 = AXIS2_PLACEMENT_3D ( 'NONE', #332, #206, #269 ) ;
#105 = CYLINDRICAL_SURFACE ( 'NONE', #137, 15.00000000000000000 ) ;
#106 = LINE ( 'NONE', #330, #261 ) ;
#107 = VERTEX_POINT ( 'NONE', #87 ) ;
#108 = ADVANCED_FACE ( 'NONE', ( #149, #80 ), #2, .T. ) ;
#109 = EDGE_CURVE ( 'NONE', #63, #64, #303, .T. ) ;
#110 = CIRCLE ( 'NONE', #309, 15.00000000000000000 ) ;
#111 = FACE_OUTER_BOUND ( 'NONE', #168, .T. ) ;
#112 = DIRECTION ( 'NONE',  ( 1.000000000000000000, 0.000000000000000000, -0.000000000000000000 ) ) ;
#113 = AXIS2_PLACEMENT_3D ( 'NONE', #7, #238, #273 ) ;
#114 = CYLINDRICAL_SURFACE ( 'NONE', #213, 4.000000000000000000 ) ;
#115 = VERTEX_POINT ( 'NONE', #239 ) ;
#116 = DIRECTION ( 'NONE',  ( -0.7071067811865451302, 0.000000000000000000, -0.7071067811865500152 ) ) ;
#117 = ORIENTED_EDGE ( 'NONE', *, *, #322, .T. ) ;
#118 = CARTESIAN_POINT ( 'NONE',  ( -3.500000000000003109, 0.000000000000000000, 43.00000000000000000 ) ) ;
#119 = DIRECTION ( 'NONE',  ( 1.000000000000000000, 0.000000000000000000, 0.000000000000000000 ) ) ;
#120 = LOCAL_TIME ( 14, 59, 33.00000000000000000, #272 ) ;
#121 = CARTESIAN_POINT ( 'NONE',  ( 0.000000000000000000, 0.000000000000000000, 42.49999999999999289 ) ) ;
#122 = AXIS2_PLACEMENT_3D ( 'NONE', #384, #84, #112 ) ;
#123 = EDGE_CURVE ( 'NONE', #376, #353, #292, .T. ) ;
#124 = DIRECTION ( 'NONE',  ( -1.000000000000000000, 0.000000000000000000, 0.000000000000000000 ) ) ;
#125 = COORDINATED_UNIVERSAL_TIME_OFFSET ( 1, 0, .AHEAD. ) ;
#126 = CARTESIAN_POINT ( 'NONE',  ( -15.00000000000000000, 0.000000000000000000, 0.000000000000000000 ) ) ;
#127 = ORIENTED_EDGE ( 'NONE', *, *, #123, .F. ) ;
#128 = EDGE_LOOP ( 'NONE', ( #350, #338, #192, #258 ) ) ;
#129 = CARTESIAN_POINT ( 'NONE',  ( 0.000000000000000000, 0.000000000000000000, 0.000000000000000000 ) ) ;
#130 = CARTESIAN_POINT ( 'NONE',  ( 0.000000000000000000, 0.000000000000000000, 0.000000000000000000 ) ) ;
#131 = AXIS2_PLACEMENT_3D ( 'NONE', #295, #178, #154 ) ;
#132 = DIRECTION ( 'NONE',  ( 1.000000000000000000, 0.000000000000000000, 0.000000000000000000 ) ) ;
#133 = PERSON_AND_ORGANIZATION ( #177, #379 ) ;
#134 = DIRECTION ( 'NONE',  ( -1.000000000000000000, 0.000000000000000000, 0.000000000000000000 ) ) ;
#135 = ORIENTED_EDGE ( 'NONE', *, *, #136, .T. ) ;
#136 = EDGE_CURVE ( 'NONE', #101, #215, #106, .T. ) ;
#137 = AXIS2_PLACEMENT_3D ( 'NONE', #89, #354, #148 ) ;
#138 = ORIENTED_EDGE ( 'NONE', *, *, #298, .F. ) ;
#139 = VERTEX_POINT ( 'NONE', #300 ) ;
#140 = ADVANCED_FACE ( 'NONE', ( #175 ), #97, .T. ) ;
#141 = DIRECTION ( 'NONE',  ( 1.000000000000000000, 0.000000000000000000, 0.000000000000000000 ) ) ;
#142 = ADVANCED_FACE ( 'NONE', ( #241 ), #159, .F. ) ;
#143 = ORIENTED_EDGE ( 'NONE', *, *, #33, .T. ) ;
#144 = AXIS2_PLACEMENT_3D ( 'NONE', #42, #340, #183 ) ;
#145 = CARTESIAN_POINT ( 'NONE',  ( 0.000000000000000000, 0.000000000000000000, 20.00000000000000000 ) ) ;
#146 = CONICAL_SURFACE ( 'NONE', #377, 3.500000000000003109, 0.7853981633974447263 ) ;
#147 = CIRCLE ( 'NONE', #55, 4.000000000000000000 ) ;
#148 = DIRECTION ( 'NONE',  ( -1.000000000000000000, 0.000000000000000000, 0.000000000000000000 ) ) ;
#149 = FACE_BOUND ( 'NONE', #221, .T. ) ;
#150 = PRODUCT_DEFINITION_FORMATION_WITH_SPECIFIED_SOURCE ( 'TUTTO', '', #380, .NOT_KNOWN. ) ;
#151 = ORIENTED_EDGE ( 'NONE', *, *, #19, .F. ) ;
#152 = DIRECTION ( 'NONE',  ( -1.000000000000000000, 0.000000000000000000, 0.000000000000000000 ) ) ;
#153 = CARTESIAN_POINT ( 'NONE',  ( -4.000000000000000000, 0.000000000000000000, 8.000000000000000000 ) ) ;
#154 = DIRECTION ( 'NONE',  ( 1.000000000000000000, 0.000000000000000000, -0.000000000000000000 ) ) ;
#155 = CIRCLE ( 'NONE', #263, 15.00000000000000000 ) ;
#156 = VECTOR ( 'NONE', #116, 1000.000000000000114 ) ;
#157 = DIRECTION ( 'NONE',  ( 0.000000000000000000, 0.000000000000000000, 1.000000000000000000 ) ) ;
#158 = DIRECTION ( 'NONE',  ( 1.000000000000000000, 0.000000000000000000, 0.000000000000000000 ) ) ;
#159 = CYLINDRICAL_SURFACE ( 'NONE', #113, 4.000000000000000000 ) ;
#160 = VERTEX_POINT ( 'NONE', #299 ) ;
#161 = DATE_TIME_ROLE ( 'creation_date' ) ;
#162 = AXIS2_PLACEMENT_3D ( 'NONE', #275, #95, #333 ) ;
#163 = APPLICATION_CONTEXT ( 'configuration controlled 3d designs of mechanical parts and assemblies' ) ;
#164 = CALENDAR_DATE ( 2022, 10, 3 ) ;
#165 = ORIENTED_EDGE ( 'NONE', *, *, #318, .F. ) ;
#166 = DATE_AND_TIME ( #208, #342 ) ;
#167 = CIRCLE ( 'NONE', #290, 3.500000000000003109 ) ;
#168 = EDGE_LOOP ( 'NONE', ( #172, #102, #52, #86 ) ) ;
#169 = ADVANCED_FACE ( 'NONE', ( #344 ), #1, .T. ) ;
#170 = APPROVAL ( #20, 'NON SPECIFICATO' ) ;
#171 = CIRCLE ( 'NONE', #13, 3.500000000000003109 ) ;
#172 = ORIENTED_EDGE ( 'NONE', *, *, #79, .F. ) ;
#173 = DIRECTION ( 'NONE',  ( 1.000000000000000000, 0.000000000000000000, 0.000000000000000000 ) ) ;
#174 = CARTESIAN_POINT ( 'NONE',  ( 15.00000000000000000, 1.836970198721029589E-15, 20.00000000000000000 ) ) ;
#175 = FACE_OUTER_BOUND ( 'NONE', #297, .T. ) ;
#176 = CARTESIAN_POINT ( 'NONE',  ( -15.00000000000000000, 0.000000000000000000, 20.00000000000000000 ) ) ;
#177 = PERSON ( 'NON SPECIFICATO', 'NON SPECIFICATO', 'NON SPECIFICATO', ('NON SPECIFICATO'), ('NON SPECIFICATO'), ('NON SPECIFICATO') ) ;
#178 = DIRECTION ( 'NONE',  ( 0.000000000000000000, 0.000000000000000000, 1.000000000000000000 ) ) ;
#179 = DIRECTION ( 'NONE',  ( -0.000000000000000000, -0.000000000000000000, -1.000000000000000000 ) ) ;
#180 = CIRCLE ( 'NONE', #301, 4.000000000000000000 ) ;
#181 = PLANE ( 'NONE',  #144 ) ;
#182 = EDGE_LOOP ( 'NONE', ( #44, #186, #308, #381 ) ) ;
#183 = DIRECTION ( 'NONE',  ( -1.000000000000000000, 0.000000000000000000, -0.000000000000000000 ) ) ;
#184 = DIRECTION ( 'NONE',  ( -0.000000000000000000, -0.000000000000000000, -1.000000000000000000 ) ) ;
#185 = DIRECTION ( 'NONE',  ( 0.000000000000000000, 0.000000000000000000, 1.000000000000000000 ) ) ;
#186 = ORIENTED_EDGE ( 'NONE', *, *, #211, .T. ) ;
#187 = CC_DESIGN_PERSON_AND_ORGANIZATION_ASSIGNMENT ( #252, #51, ( #150 ) ) ;
#188 = CARTESIAN_POINT ( 'NONE',  ( 4.000000000000000000, 4.898587196589412829E-16, 0.000000000000000000 ) ) ;
#189 = COORDINATED_UNIVERSAL_TIME_OFFSET ( 1, 0, .AHEAD. ) ;
#190 = PERSON_AND_ORGANIZATION_ROLE ( 'classification_officer' ) ;
#191 = COORDINATED_UNIVERSAL_TIME_OFFSET ( 1, 0, .AHEAD. ) ;
#192 = ORIENTED_EDGE ( 'NONE', *, *, #280, .T. ) ;
#193 = APPLICATION_CONTEXT ( 'configuration controlled 3d designs of mechanical parts and assemblies' ) ;
#194 = SECURITY_CLASSIFICATION_LEVEL ( 'unclassified' ) ;
#195 = AXIS2_PLACEMENT_3D ( 'NONE', #129, #157, #141 ) ;
#196 = CIRCLE ( 'NONE', #34, 4.000000000000000000 ) ;
#197 = FACE_OUTER_BOUND ( 'NONE', #274, .T. ) ;
#198 = APPROVAL_PERSON_ORGANIZATION ( #282, #170, #223 ) ;
#199 = CC_DESIGN_APPROVAL ( #170, ( #150 ) ) ;
#200 = ADVANCED_FACE ( 'NONE', ( #32 ), #306, .T. ) ;
#201 = CARTESIAN_POINT ( 'NONE',  ( 0.000000000000000000, 0.000000000000000000, 8.000000000000000000 ) ) ;
#202 = APPROVAL_PERSON_ORGANIZATION ( #367, #73, #255 ) ;
#203 = ORIENTED_EDGE ( 'NONE', *, *, #109, .T. ) ;
#204 = CARTESIAN_POINT ( 'NONE',  ( -4.000000000000000000, 0.000000000000000000, 42.49999999999999289 ) ) ;
#205 = DIRECTION ( 'NONE',  ( 1.000000000000000000, 0.000000000000000000, 0.000000000000000000 ) ) ;
#206 = DIRECTION ( 'NONE',  ( -0.000000000000000000, -0.000000000000000000, -1.000000000000000000 ) ) ;
#207 = CC_DESIGN_PERSON_AND_ORGANIZATION_ASSIGNMENT ( #244, #317, ( #150 ) ) ;
#208 = CALENDAR_DATE ( 2022, 10, 3 ) ;
#209 = ORIENTED_EDGE ( 'NONE', *, *, #341, .F. ) ;
#210 = DIRECTION ( 'NONE',  ( 0.000000000000000000, 0.000000000000000000, -1.000000000000000000 ) ) ;
#211 = EDGE_CURVE ( 'NONE', #101, #26, #147, .T. ) ;
#212 = DIRECTION ( 'NONE',  ( -0.000000000000000000, -0.000000000000000000, -1.000000000000000000 ) ) ;
#213 = AXIS2_PLACEMENT_3D ( 'NONE', #216, #242, #371 ) ;
#214 = FACE_OUTER_BOUND ( 'NONE', #246, .T. ) ;
#215 = VERTEX_POINT ( 'NONE', #365 ) ;
#216 = CARTESIAN_POINT ( 'NONE',  ( 0.000000000000000000, 0.000000000000000000, 43.00000000000000000 ) ) ;
#217 = CARTESIAN_POINT ( 'NONE',  ( 0.000000000000000000, 0.000000000000000000, 0.000000000000000000 ) ) ;
#218 = DIRECTION ( 'NONE',  ( 0.000000000000000000, 0.000000000000000000, -1.000000000000000000 ) ) ;
#219 = PERSON_AND_ORGANIZATION ( #177, #379 ) ;
#220 = PERSON_AND_ORGANIZATION ( #177, #379 ) ;
#221 = EDGE_LOOP ( 'NONE', ( #313, #76 ) ) ;
#222 = MECHANICAL_CONTEXT ( 'NONE', #163, 'mechanical' ) ;
#223 = APPROVAL_ROLE ( '' ) ;
#224 = VECTOR ( 'NONE', #38, 1000.000000000000000 ) ;
#225 = ORIENTED_EDGE ( 'NONE', *, *, #378, .F. ) ;
#226 = MANIFOLD_SOLID_BREP ( 'Taglio-Estrusione1', #228 ) ;
#227 = CIRCLE ( 'NONE', #234, 4.000000000000000000 ) ;
#228 = CLOSED_SHELL ( 'NONE', ( #30, #382, #373, #82, #200, #108, #321, #169, #140, #265, #142, #260 ) ) ;
#229 = SECURITY_CLASSIFICATION ( '', '', #194 ) ;
#230 = DIRECTION ( 'NONE',  ( 0.7071067811865451302, 8.659560562354903276E-17, -0.7071067811865500152 ) ) ;
#231 = EDGE_CURVE ( 'NONE', #139, #115, #167, .T. ) ;
#232 = DIRECTION ( 'NONE',  ( -1.000000000000000000, 0.000000000000000000, 0.000000000000000000 ) ) ;
#233 = LINE ( 'NONE', #118, #156 ) ;
#234 = AXIS2_PLACEMENT_3D ( 'NONE', #355, #326, #173 ) ;
#235 = ORIENTED_EDGE ( 'NONE', *, *, #339, .F. ) ;
#236 = DIRECTION ( 'NONE',  ( -0.000000000000000000, -0.000000000000000000, -1.000000000000000000 ) ) ;
#237 = EDGE_LOOP ( 'NONE', ( #320, #135, #266, #225 ) ) ;
#238 = DIRECTION ( 'NONE',  ( -0.000000000000000000, -0.000000000000000000, -1.000000000000000000 ) ) ;
#239 = CARTESIAN_POINT ( 'NONE',  ( 3.500000000000003109, 4.592425496802575944E-16, 43.00000000000000000 ) ) ;
#240 = AXIS2_PLACEMENT_3D ( 'NONE', #370, #279, #47 ) ;
#241 = FACE_OUTER_BOUND ( 'NONE', #3, .T. ) ;
#242 = DIRECTION ( 'NONE',  ( -0.000000000000000000, -0.000000000000000000, -1.000000000000000000 ) ) ;
#243 = DIRECTION ( 'NONE',  ( 0.000000000000000000, 0.000000000000000000, 1.000000000000000000 ) ) ;
#244 = PERSON_AND_ORGANIZATION ( #177, #379 ) ;
#245 = DIRECTION ( 'NONE',  ( 0.000000000000000000, 0.000000000000000000, 1.000000000000000000 ) ) ;
#246 = EDGE_LOOP ( 'NONE', ( #17, #331, #43, #359 ) ) ;
#247 = ORIENTED_EDGE ( 'NONE', *, *, #284, .F. ) ;
#248 = CARTESIAN_POINT ( 'NONE',  ( 0.000000000000000000, 0.000000000000000000, 0.000000000000000000 ) ) ;
#249 = CC_DESIGN_PERSON_AND_ORGANIZATION_ASSIGNMENT ( #15, #190, ( #229 ) ) ;
#250 = DIRECTION ( 'NONE',  ( -1.000000000000000000, 0.000000000000000000, 0.000000000000000000 ) ) ;
#251 = APPROVAL_STATUS ( 'not_yet_approved' ) ;
#252 = PERSON_AND_ORGANIZATION ( #177, #379 ) ;
#253 = ORIENTED_EDGE ( 'NONE', *, *, #33, .F. ) ;
#254 = PRODUCT_DEFINITION ( 'NON CONOSCIUTO', '', #150, #268 ) ;
#255 = APPROVAL_ROLE ( '' ) ;
#256 = COORDINATED_UNIVERSAL_TIME_OFFSET ( 1, 0, .AHEAD. ) ;
#257 = EDGE_LOOP ( 'NONE', ( #6, #235 ) ) ;
#258 = ORIENTED_EDGE ( 'NONE', *, *, #318, .T. ) ;
#259 = DATE_AND_TIME ( #346, #39 ) ;
#260 = ADVANCED_FACE ( 'NONE', ( #375 ), #181, .T. ) ;
#261 = VECTOR ( 'NONE', #4, 1000.000000000000000 ) ;
#262 = CARTESIAN_POINT ( 'NONE',  ( 4.000000000000000000, 4.898587196589412829E-16, 42.49999999999999289 ) ) ;
#263 = AXIS2_PLACEMENT_3D ( 'NONE', #248, #103, #369 ) ;
#264 = DIRECTION ( 'NONE',  ( 0.000000000000000000, 0.000000000000000000, 1.000000000000000000 ) ) ;
#265 = ADVANCED_FACE ( 'NONE', ( #214 ), #146, .T. ) ;
#266 = ORIENTED_EDGE ( 'NONE', *, *, #8, .T. ) ;
#267 = ORIENTED_EDGE ( 'NONE', *, *, #327, .F. ) ;
#268 = DESIGN_CONTEXT ( 'detailed design', #193, 'design' ) ;
#269 = DIRECTION ( 'NONE',  ( -1.000000000000000000, 0.000000000000000000, 0.000000000000000000 ) ) ;
#270 = CARTESIAN_POINT ( 'NONE',  ( 0.000000000000000000, 0.000000000000000000, 43.00000000000000000 ) ) ;
#271 = CC_DESIGN_DATE_AND_TIME_ASSIGNMENT ( #81, #25, ( #229 ) ) ;
#272 = COORDINATED_UNIVERSAL_TIME_OFFSET ( 1, 0, .AHEAD. ) ;
#273 = DIRECTION ( 'NONE',  ( -1.000000000000000000, 0.000000000000000000, 0.000000000000000000 ) ) ;
#274 = EDGE_LOOP ( 'NONE', ( #253, #287, #90, #319 ) ) ;
#275 = CARTESIAN_POINT ( 'NONE',  ( 0.000000000000000000, 0.000000000000000000, 0.000000000000000000 ) ) ;
#276 = DIRECTION ( 'NONE',  ( 0.000000000000000000, 0.000000000000000000, 1.000000000000000000 ) ) ;
#277 = CARTESIAN_POINT ( 'NONE',  ( 0.000000000000000000, 0.000000000000000000, 20.00000000000000000 ) ) ;
#278 = ORIENTED_EDGE ( 'NONE', *, *, #79, .T. ) ;
#279 = DIRECTION ( 'NONE',  ( 0.000000000000000000, 0.000000000000000000, -1.000000000000000000 ) ) ;
#280 = EDGE_CURVE ( 'NONE', #160, #368, #5, .T. ) ;
#281 = APPROVAL_DATE_TIME ( #166, #335 ) ;
#282 = PERSON_AND_ORGANIZATION ( #177, #379 ) ;
#283 = APPROVAL_STATUS ( 'not_yet_approved' ) ;
#284 = EDGE_CURVE ( 'NONE', #115, #139, #171, .T. ) ;
#285 = FACE_OUTER_BOUND ( 'NONE', #71, .T. ) ;
#286 = PERSON_AND_ORGANIZATION_ROLE ( 'creator' ) ;
#287 = ORIENTED_EDGE ( 'NONE', *, *, #123, .T. ) ;
#288 = LOCAL_TIME ( 14, 59, 33.00000000000000000, #189 ) ;
#289 = APPROVAL_DATE_TIME ( #372, #73 ) ;
#290 = AXIS2_PLACEMENT_3D ( 'NONE', #41, #276, #37 ) ;
#291 = CARTESIAN_POINT ( 'NONE',  ( 0.000000000000000000, 0.000000000000000000, 8.000000000000000000 ) ) ;
#292 = LINE ( 'NONE', #302, #35 ) ;
#293 = ORIENTED_EDGE ( 'NONE', *, *, #362, .T. ) ;
#294 = DIRECTION ( 'NONE',  ( -1.000000000000000000, 0.000000000000000000, 0.000000000000000000 ) ) ;
#295 = CARTESIAN_POINT ( 'NONE',  ( 0.000000000000000000, 0.000000000000000000, 43.00000000000000000 ) ) ;
#296 = VECTOR ( 'NONE', #184, 1000.000000000000000 ) ;
#297 = EDGE_LOOP ( 'NONE', ( #358, #54 ) ) ;
#298 = EDGE_CURVE ( 'NONE', #107, #368, #70, .T. ) ;
#299 = CARTESIAN_POINT ( 'NONE',  ( -15.00000000000000000, 0.000000000000000000, 20.00000000000000000 ) ) ;
#300 = CARTESIAN_POINT ( 'NONE',  ( -3.500000000000003109, 0.000000000000000000, 43.00000000000000000 ) ) ;
#301 = AXIS2_PLACEMENT_3D ( 'NONE', #130, #218, #307 ) ;
#302 = CARTESIAN_POINT ( 'NONE',  ( 4.000000000000000000, 4.898587196589412829E-16, 8.000000000000000000 ) ) ;
#303 = LINE ( 'NONE', #153, #224 ) ;
#304 = CARTESIAN_POINT ( 'NONE',  ( 0.000000000000000000, 0.000000000000000000, 20.00000000000000000 ) ) ;
#305 =( LENGTH_UNIT ( ) NAMED_UNIT ( * ) SI_UNIT ( .MILLI., .METRE. ) );
#306 = CYLINDRICAL_SURFACE ( 'NONE', #104, 15.00000000000000000 ) ;
#307 = DIRECTION ( 'NONE',  ( -1.000000000000000000, 0.000000000000000000, 0.000000000000000000 ) ) ;
#308 = ORIENTED_EDGE ( 'NONE', *, *, #378, .T. ) ;
#309 = AXIS2_PLACEMENT_3D ( 'NONE', #304, #245, #132 ) ;
#310 = CARTESIAN_POINT ( 'NONE',  ( 0.000000000000000000, 0.000000000000000000, 43.00000000000000000 ) ) ;
#311 = EDGE_CURVE ( 'NONE', #27, #107, #374, .T. ) ;
#312 = VECTOR ( 'NONE', #179, 1000.000000000000000 ) ;
#313 = ORIENTED_EDGE ( 'NONE', *, *, #383, .F. ) ;
#314 =( NAMED_UNIT ( * ) SI_UNIT ( $, .STERADIAN. ) SOLID_ANGLE_UNIT ( ) );
#315 = AXIS2_PLACEMENT_3D ( 'NONE', #145, #264, #205 ) ;
#316 =( NAMED_UNIT ( * ) PLANE_ANGLE_UNIT ( ) SI_UNIT ( $, .RADIAN. ) );
#317 = PERSON_AND_ORGANIZATION_ROLE ( 'design_supplier' ) ;
#318 = EDGE_CURVE ( 'NONE', #368, #107, #155, .T. ) ;
#319 = ORIENTED_EDGE ( 'NONE', *, *, #109, .F. ) ;
#320 = ORIENTED_EDGE ( 'NONE', *, *, #341, .T. ) ;
#321 = ADVANCED_FACE ( 'NONE', ( #22, #285 ), #14, .F. ) ;
#322 = EDGE_CURVE ( 'NONE', #160, #27, #110, .T. ) ;
#323 = LINE ( 'NONE', #345, #296 ) ;
#324 = AXIS2_PLACEMENT_3D ( 'NONE', #217, #185, #45 ) ;
#325 = CIRCLE ( 'NONE', #83, 4.000000000000000000 ) ;
#326 = DIRECTION ( 'NONE',  ( 0.000000000000000000, 0.000000000000000000, 1.000000000000000000 ) ) ;
#327 = EDGE_CURVE ( 'NONE', #63, #376, #352, .T. ) ;
#328 = CALENDAR_DATE ( 2022, 10, 3 ) ;
#329 = VERTEX_POINT ( 'NONE', #100 ) ;
#330 = CARTESIAN_POINT ( 'NONE',  ( 4.000000000000000000, 4.898587196589412829E-16, 43.00000000000000000 ) ) ;
#331 = ORIENTED_EDGE ( 'NONE', *, *, #231, .F. ) ;
#332 = CARTESIAN_POINT ( 'NONE',  ( 0.000000000000000000, 0.000000000000000000, 20.00000000000000000 ) ) ;
#333 = DIRECTION ( 'NONE',  ( 1.000000000000000000, 0.000000000000000000, 0.000000000000000000 ) ) ;
#334 = PRODUCT_DEFINITION_SHAPE ( 'NONE', 'NONE',  #254 ) ;
#335 = APPROVAL ( #251, 'NON SPECIFICATO' ) ;
#336 = DIRECTION ( 'NONE',  ( 1.000000000000000000, 0.000000000000000000, 0.000000000000000000 ) ) ;
#337 = APPROVAL_DATE_TIME ( #259, #170 ) ;
#338 = ORIENTED_EDGE ( 'NONE', *, *, #322, .F. ) ;
#339 = EDGE_CURVE ( 'NONE', #353, #64, #180, .T. ) ;
#340 = DIRECTION ( 'NONE',  ( 0.000000000000000000, 0.000000000000000000, -1.000000000000000000 ) ) ;
#341 = EDGE_CURVE ( 'NONE', #26, #101, #78, .T. ) ;
#342 = LOCAL_TIME ( 14, 59, 33.00000000000000000, #256 ) ;
#343 = DIRECTION ( 'NONE',  ( 0.000000000000000000, 0.000000000000000000, -1.000000000000000000 ) ) ;
#344 = FACE_OUTER_BOUND ( 'NONE', #182, .T. ) ;
#345 = CARTESIAN_POINT ( 'NONE',  ( -4.000000000000000000, 0.000000000000000000, 43.00000000000000000 ) ) ;
#346 = CALENDAR_DATE ( 2022, 10, 3 ) ;
#347 = VECTOR ( 'NONE', #230, 1000.000000000000114 ) ;
#348 = AXIS2_PLACEMENT_3D ( 'NONE', #12, #343, #158 ) ;
#349 = LINE ( 'NONE', #31, #347 ) ;
#350 = ORIENTED_EDGE ( 'NONE', *, *, #311, .F. ) ;
#351 = CC_DESIGN_APPROVAL ( #335, ( #229 ) ) ;
#352 = CIRCLE ( 'NONE', #240, 4.000000000000000000 ) ;
#353 = VERTEX_POINT ( 'NONE', #188 ) ;
#354 = DIRECTION ( 'NONE',  ( -0.000000000000000000, -0.000000000000000000, -1.000000000000000000 ) ) ;
#355 = CARTESIAN_POINT ( 'NONE',  ( 0.000000000000000000, 0.000000000000000000, 20.00000000000000000 ) ) ;
#356 = VECTOR ( 'NONE', #212, 1000.000000000000000 ) ;
#357 = AXIS2_PLACEMENT_3D ( 'NONE', #201, #360, #232 ) ;
#358 = ORIENTED_EDGE ( 'NONE', *, *, #231, .T. ) ;
#359 = ORIENTED_EDGE ( 'NONE', *, *, #211, .F. ) ;
#360 = DIRECTION ( 'NONE',  ( -0.000000000000000000, -0.000000000000000000, -1.000000000000000000 ) ) ;
#361 = DIRECTION ( 'NONE',  ( 0.000000000000000000, 0.000000000000000000, 1.000000000000000000 ) ) ;
#362 = EDGE_CURVE ( 'NONE', #64, #353, #196, .T. ) ;
#363 = DATE_AND_TIME ( #58, #120 ) ;
#364 = CARTESIAN_POINT ( 'NONE',  ( 15.00000000000000000, 1.836970198721029589E-15, 20.00000000000000000 ) ) ;
#365 = CARTESIAN_POINT ( 'NONE',  ( 4.000000000000000000, 4.898587196589412829E-16, 20.00000000000000000 ) ) ;
#366 = AXIS2_PLACEMENT_3D ( 'NONE', #66, #93, #152 ) ;
#367 = PERSON_AND_ORGANIZATION ( #177, #379 ) ;
#368 = VERTEX_POINT ( 'NONE', #126 ) ;
#369 = DIRECTION ( 'NONE',  ( 1.000000000000000000, 0.000000000000000000, 0.000000000000000000 ) ) ;
#370 = CARTESIAN_POINT ( 'NONE',  ( 0.000000000000000000, 0.000000000000000000, 8.000000000000000000 ) ) ;
#371 = DIRECTION ( 'NONE',  ( -1.000000000000000000, 0.000000000000000000, 0.000000000000000000 ) ) ;
#372 = DATE_AND_TIME ( #164, #68 ) ;
#373 = ADVANCED_FACE ( 'NONE', ( #48 ), #114, .T. ) ;
#374 = LINE ( 'NONE', #364, #312 ) ;
#375 = FACE_OUTER_BOUND ( 'NONE', #10, .T. ) ;
#376 = VERTEX_POINT ( 'NONE', #18 ) ;
#377 = AXIS2_PLACEMENT_3D ( 'NONE', #92, #210, #124 ) ;
#378 = EDGE_CURVE ( 'NONE', #26, #329, #323, .T. ) ;
#379 = ORGANIZATION ( 'NON SPECIFICATO', 'NON SPECIFICATO', '' ) ;
#380 = PRODUCT ( '5SU1057_ Anti vibration mount', '5SU1057_ Anti vibration mount', '', ( #222 ) ) ;
#381 = ORIENTED_EDGE ( 'NONE', *, *, #383, .T. ) ;
#382 = ADVANCED_FACE ( 'NONE', ( #62 ), #75, .T. ) ;
#383 = EDGE_CURVE ( 'NONE', #329, #215, #85, .T. ) ;
#384 = CARTESIAN_POINT ( 'NONE',  ( 0.000000000000000000, 0.000000000000000000, 20.00000000000000000 ) ) ;
#385 =( GEOMETRIC_REPRESENTATION_CONTEXT ( 3 ) GLOBAL_UNCERTAINTY_ASSIGNED_CONTEXT ( ( #28 ) ) GLOBAL_UNIT_ASSIGNED_CONTEXT ( ( #305, #316, #314 ) ) REPRESENTATION_CONTEXT ( 'NONE', 'WORKASPACE' ) );
ENDSEC;
END-ISO-10303-21;
