ISO-10303-21;
HEADER;
FILE_DESCRIPTION (( 'STEP AP203' ),
    '1' );
FILE_NAME ('5SU1038_ Anti vibration mount.STEP',
    '2022-03-10T14:02:37',
    ( '' ),
    ( '' ),
    'SwSTEP 2.0',
    'SolidWorks 2018',
    '' );
FILE_SCHEMA (( 'CONFIG_CONTROL_DESIGN' ));
ENDSEC;

DATA;
#1 = DIRECTION ( 'NONE',  ( 0.000000000000000000, 0.000000000000000000, 1.000000000000000000 ) ) ;
#2 = CIRCLE ( 'NONE', #53, 4.500000000000017764 ) ;
#3 = EDGE_LOOP ( 'NONE', ( #384, #135, #170, #189 ) ) ;
#4 = AXIS2_PLACEMENT_3D ( 'NONE', #89, #267, #184 ) ;
#5 = ADVANCED_FACE ( 'NONE', ( #72 ), #175, .T. ) ;
#6 = CARTESIAN_POINT ( 'NONE',  ( -25.00000000000000000, 0.000000000000000000, 0.000000000000000000 ) ) ;
#7 = FACE_OUTER_BOUND ( 'NONE', #196, .T. ) ;
#8 = VERTEX_POINT ( 'NONE', #87 ) ;
#9 = CC_DESIGN_APPROVAL ( #94, ( #46 ) ) ;
#10 = EDGE_CURVE ( 'NONE', #169, #353, #210, .T. ) ;
#11 = CALENDAR_DATE ( 2022, 10, 3 ) ;
#12 = DIRECTION ( 'NONE',  ( -0.000000000000000000, -0.000000000000000000, -1.000000000000000000 ) ) ;
#13 = CIRCLE ( 'NONE', #356, 5.000000000000000000 ) ;
#14 = DIRECTION ( 'NONE',  ( 0.000000000000000000, 0.000000000000000000, -1.000000000000000000 ) ) ;
#15 = EDGE_CURVE ( 'NONE', #38, #8, #207, .T. ) ;
#16 = DIRECTION ( 'NONE',  ( 0.000000000000000000, 0.000000000000000000, 1.000000000000000000 ) ) ;
#17 = FACE_OUTER_BOUND ( 'NONE', #33, .T. ) ;
#18 = EDGE_CURVE ( 'NONE', #376, #290, #204, .T. ) ;
#19 = EDGE_LOOP ( 'NONE', ( #62, #233 ) ) ;
#20 = ORIENTED_EDGE ( 'NONE', *, *, #351, .F. ) ;
#21 = APPROVAL_ROLE ( '' ) ;
#22 = APPROVAL_DATE_TIME ( #202, #285 ) ;
#23 = CIRCLE ( 'NONE', #126, 5.000000000000000000 ) ;
#24 = FACE_OUTER_BOUND ( 'NONE', #239, .T. ) ;
#25 = CARTESIAN_POINT ( 'NONE',  ( 0.000000000000000000, 0.000000000000000000, 8.000000000000000000 ) ) ;
#26 = AXIS2_PLACEMENT_3D ( 'NONE', #304, #278, #78 ) ;
#27 = CARTESIAN_POINT ( 'NONE',  ( -5.000000000000000000, 0.000000000000000000, 62.50000000000001421 ) ) ;
#28 = PERSON_AND_ORGANIZATION ( #340, #137 ) ;
#29 = DIRECTION ( 'NONE',  ( 0.000000000000000000, 0.000000000000000000, -1.000000000000000000 ) ) ;
#30 = ADVANCED_FACE ( 'NONE', ( #24 ), #112, .T. ) ;
#31 = CC_DESIGN_DATE_AND_TIME_ASSIGNMENT ( #374, #171, ( #307 ) ) ;
#32 = CARTESIAN_POINT ( 'NONE',  ( -5.000000000000000000, 0.000000000000000000, 8.000000000000000000 ) ) ;
#33 = EDGE_LOOP ( 'NONE', ( #283, #67 ) ) ;
#34 = AXIS2_PLACEMENT_3D ( 'NONE', #25, #237, #268 ) ;
#35 = DIRECTION ( 'NONE',  ( -0.000000000000000000, -0.000000000000000000, -1.000000000000000000 ) ) ;
#36 = EDGE_CURVE ( 'NONE', #290, #376, #119, .T. ) ;
#37 = CARTESIAN_POINT ( 'NONE',  ( 25.00000000000000000, 3.061616997868383043E-15, 30.00000000000000000 ) ) ;
#38 = VERTEX_POINT ( 'NONE', #27 ) ;
#39 = VERTEX_POINT ( 'NONE', #240 ) ;
#40 = AXIS2_PLACEMENT_3D ( 'NONE', #361, #95, #366 ) ;
#41 = PERSON_AND_ORGANIZATION ( #340, #137 ) ;
#42 = CIRCLE ( 'NONE', #339, 25.00000000000000000 ) ;
#43 = EDGE_LOOP ( 'NONE', ( #128, #222, #91, #150 ) ) ;
#44 = CARTESIAN_POINT ( 'NONE',  ( 0.000000000000000000, 0.000000000000000000, 63.00000000000000000 ) ) ;
#45 = CARTESIAN_POINT ( 'NONE',  ( 5.000000000000000000, 6.123233995736766282E-16, 8.000000000000000000 ) ) ;
#46 = PRODUCT_DEFINITION ( 'NON CONOSCIUTO', '', #377, #190 ) ;
#47 = LINE ( 'NONE', #37, #77 ) ;
#48 = EDGE_LOOP ( 'NONE', ( #346, #140 ) ) ;
#49 = ORIENTED_EDGE ( 'NONE', *, *, #333, .T. ) ;
#50 = APPROVAL_STATUS ( 'not_yet_approved' ) ;
#51 = CC_DESIGN_APPROVAL ( #285, ( #307 ) ) ;
#52 = DIRECTION ( 'NONE',  ( 0.000000000000000000, 0.000000000000000000, 1.000000000000000000 ) ) ;
#53 = AXIS2_PLACEMENT_3D ( 'NONE', #153, #97, #156 ) ;
#54 = DIRECTION ( 'NONE',  ( -1.000000000000000000, 0.000000000000000000, 0.000000000000000000 ) ) ;
#55 = VECTOR ( 'NONE', #177, 1000.000000000000000 ) ;
#56 = ORIENTED_EDGE ( 'NONE', *, *, #141, .T. ) ;
#57 = AXIS2_PLACEMENT_3D ( 'NONE', #70, #99, #166 ) ;
#58 = CARTESIAN_POINT ( 'NONE',  ( -5.000000000000000000, 0.000000000000000000, 30.00000000000000000 ) ) ;
#59 = APPROVAL_PERSON_ORGANIZATION ( #125, #94, #328 ) ;
#60 = DIRECTION ( 'NONE',  ( -1.000000000000000000, 0.000000000000000000, 0.000000000000000000 ) ) ;
#61 = ADVANCED_FACE ( 'NONE', ( #345 ), #277, .T. ) ;
#62 = ORIENTED_EDGE ( 'NONE', *, *, #74, .F. ) ;
#63 = CARTESIAN_POINT ( 'NONE',  ( -5.000000000000000000, 0.000000000000000000, 63.00000000000000000 ) ) ;
#64 = CARTESIAN_POINT ( 'NONE',  ( 5.000000000000000000, 6.123233995736766282E-16, 8.000000000000000000 ) ) ;
#65 = CC_DESIGN_PERSON_AND_ORGANIZATION_ASSIGNMENT ( #163, #109, ( #377 ) ) ;
#66 = DATE_AND_TIME ( #336, #76 ) ;
#67 = ORIENTED_EDGE ( 'NONE', *, *, #36, .T. ) ;
#68 = AXIS2_PLACEMENT_3D ( 'NONE', #315, #16, #186 ) ;
#69 = CARTESIAN_POINT ( 'NONE',  ( 5.000000000000000000, 6.123233995736766282E-16, 0.000000000000000000 ) ) ;
#70 = CARTESIAN_POINT ( 'NONE',  ( 0.000000000000000000, 0.000000000000000000, 0.000000000000000000 ) ) ;
#71 = PRODUCT ( '5SU1038_ Anti vibration mount', '5SU1038_ Anti vibration mount', '', ( #168 ) ) ;
#72 = FACE_OUTER_BOUND ( 'NONE', #284, .T. ) ;
#73 = ORIENTED_EDGE ( 'NONE', *, *, #74, .T. ) ;
#74 = EDGE_CURVE ( 'NONE', #326, #287, #42, .T. ) ;
#75 = DIRECTION ( 'NONE',  ( -1.000000000000000000, 0.000000000000000000, 0.000000000000000000 ) ) ;
#76 = LOCAL_TIME ( 15, 2, 37.00000000000000000, #260 ) ;
#77 = VECTOR ( 'NONE', #157, 1000.000000000000000 ) ;
#78 = DIRECTION ( 'NONE',  ( -1.000000000000000000, 0.000000000000000000, 0.000000000000000000 ) ) ;
#79 = CARTESIAN_POINT ( 'NONE',  ( -4.500000000000017764, 0.000000000000000000, 63.00000000000000000 ) ) ;
#80 = CARTESIAN_POINT ( 'NONE',  ( 0.000000000000000000, 0.000000000000000000, 0.000000000000000000 ) ) ;
#81 =( GEOMETRIC_REPRESENTATION_CONTEXT ( 3 ) GLOBAL_UNCERTAINTY_ASSIGNED_CONTEXT ( ( #354 ) ) GLOBAL_UNIT_ASSIGNED_CONTEXT ( ( #84, #110, #197 ) ) REPRESENTATION_CONTEXT ( 'NONE', 'WORKASPACE' ) );
#82 = ORIENTED_EDGE ( 'NONE', *, *, #365, .F. ) ;
#83 = PERSON_AND_ORGANIZATION_ROLE ( 'classification_officer' ) ;
#84 =( LENGTH_UNIT ( ) NAMED_UNIT ( * ) SI_UNIT ( .MILLI., .METRE. ) );
#85 = EDGE_CURVE ( 'NONE', #8, #38, #103, .T. ) ;
#86 = FACE_BOUND ( 'NONE', #161, .T. ) ;
#87 = CARTESIAN_POINT ( 'NONE',  ( 5.000000000000000000, 6.123233995736766282E-16, 62.50000000000001421 ) ) ;
#88 = EDGE_CURVE ( 'NONE', #38, #250, #266, .T. ) ;
#89 = CARTESIAN_POINT ( 'NONE',  ( 0.000000000000000000, 0.000000000000000000, 30.00000000000000000 ) ) ;
#90 = LINE ( 'NONE', #64, #55 ) ;
#91 = ORIENTED_EDGE ( 'NONE', *, *, #351, .T. ) ;
#92 = ORIENTED_EDGE ( 'NONE', *, *, #310, .T. ) ;
#93 = DIRECTION ( 'NONE',  ( 1.000000000000000000, 0.000000000000000000, -0.000000000000000000 ) ) ;
#94 = APPROVAL ( #50, 'NON SPECIFICATO' ) ;
#95 = DIRECTION ( 'NONE',  ( 0.000000000000000000, 0.000000000000000000, -1.000000000000000000 ) ) ;
#96 = APPROVAL_DATE_TIME ( #286, #368 ) ;
#97 = DIRECTION ( 'NONE',  ( 0.000000000000000000, 0.000000000000000000, 1.000000000000000000 ) ) ;
#98 = ORIENTED_EDGE ( 'NONE', *, *, #142, .T. ) ;
#99 = DIRECTION ( 'NONE',  ( 0.000000000000000000, 0.000000000000000000, 1.000000000000000000 ) ) ;
#100 = LINE ( 'NONE', #182, #242 ) ;
#101 = CLOSED_SHELL ( 'NONE', ( #312, #30, #331, #363, #252, #149, #154, #183, #302, #61, #279, #5 ) ) ;
#102 = APPROVAL_PERSON_ORGANIZATION ( #342, #285, #21 ) ;
#103 = CIRCLE ( 'NONE', #220, 5.000000000000000000 ) ;
#104 = CARTESIAN_POINT ( 'NONE',  ( 5.000000000000000000, 6.123233995736766282E-16, 30.00000000000000000 ) ) ;
#105 = DIRECTION ( 'NONE',  ( 1.000000000000000000, 0.000000000000000000, 0.000000000000000000 ) ) ;
#106 = COORDINATED_UNIVERSAL_TIME_OFFSET ( 1, 0, .AHEAD. ) ;
#107 = DIRECTION ( 'NONE',  ( 1.000000000000000000, 0.000000000000000000, 0.000000000000000000 ) ) ;
#108 = PERSON_AND_ORGANIZATION_ROLE ( 'creator' ) ;
#109 = PERSON_AND_ORGANIZATION_ROLE ( 'creator' ) ;
#110 =( NAMED_UNIT ( * ) PLANE_ANGLE_UNIT ( ) SI_UNIT ( $, .RADIAN. ) );
#111 = LOCAL_TIME ( 15, 2, 37.00000000000000000, #265 ) ;
#112 = CONICAL_SURFACE ( 'NONE', #200, 4.500000000000017764, 0.7853981633974439491 ) ;
#113 = AXIS2_PLACEMENT_3D ( 'NONE', #194, #127, #218 ) ;
#114 = CIRCLE ( 'NONE', #262, 5.000000000000000000 ) ;
#115 = DIRECTION ( 'NONE',  ( 1.000000000000000000, 0.000000000000000000, 0.000000000000000000 ) ) ;
#116 = EDGE_CURVE ( 'NONE', #8, #364, #100, .T. ) ;
#117 = DIRECTION ( 'NONE',  ( 1.000000000000000000, 0.000000000000000000, -0.000000000000000000 ) ) ;
#118 = LOCAL_TIME ( 15, 2, 37.00000000000000000, #106 ) ;
#119 = CIRCLE ( 'NONE', #4, 25.00000000000000000 ) ;
#120 = ORIENTED_EDGE ( 'NONE', *, *, #88, .T. ) ;
#121 = CARTESIAN_POINT ( 'NONE',  ( 0.000000000000000000, 0.000000000000000000, 63.00000000000000000 ) ) ;
#122 = EDGE_CURVE ( 'NONE', #39, #231, #2, .T. ) ;
#123 = CARTESIAN_POINT ( 'NONE',  ( 0.000000000000000000, 0.000000000000000000, 62.50000000000001421 ) ) ;
#124 = PLANE ( 'NONE',  #174 ) ;
#125 = PERSON_AND_ORGANIZATION ( #340, #137 ) ;
#126 = AXIS2_PLACEMENT_3D ( 'NONE', #136, #234, #232 ) ;
#127 = DIRECTION ( 'NONE',  ( -0.000000000000000000, -0.000000000000000000, -1.000000000000000000 ) ) ;
#128 = ORIENTED_EDGE ( 'NONE', *, *, #15, .T. ) ;
#129 = ORIENTED_EDGE ( 'NONE', *, *, #10, .T. ) ;
#130 = CARTESIAN_POINT ( 'NONE',  ( 4.500000000000017764, 5.510910596163111249E-16, 63.00000000000000000 ) ) ;
#131 = LOCAL_TIME ( 15, 2, 37.00000000000000000, #187 ) ;
#132 = ORIENTED_EDGE ( 'NONE', *, *, #116, .F. ) ;
#133 = CARTESIAN_POINT ( 'NONE',  ( 0.000000000000000000, 0.000000000000000000, 8.000000000000000000 ) ) ;
#134 = FACE_OUTER_BOUND ( 'NONE', #43, .T. ) ;
#135 = ORIENTED_EDGE ( 'NONE', *, *, #122, .F. ) ;
#136 = CARTESIAN_POINT ( 'NONE',  ( 0.000000000000000000, 0.000000000000000000, 0.000000000000000000 ) ) ;
#137 = ORGANIZATION ( 'NON SPECIFICATO', 'NON SPECIFICATO', '' ) ;
#138 = EDGE_LOOP ( 'NONE', ( #145, #20 ) ) ;
#139 = APPLICATION_CONTEXT ( 'configuration controlled 3d designs of mechanical parts and assemblies' ) ;
#140 = ORIENTED_EDGE ( 'NONE', *, *, #164, .T. ) ;
#141 = EDGE_CURVE ( 'NONE', #250, #364, #13, .T. ) ;
#142 = EDGE_CURVE ( 'NONE', #169, #292, #159, .T. ) ;
#143 = DIRECTION ( 'NONE',  ( 1.000000000000000000, 0.000000000000000000, 0.000000000000000000 ) ) ;
#144 = CC_DESIGN_SECURITY_CLASSIFICATION ( #307, ( #377 ) ) ;
#145 = ORIENTED_EDGE ( 'NONE', *, *, #141, .F. ) ;
#146 = CARTESIAN_POINT ( 'NONE',  ( 0.000000000000000000, 0.000000000000000000, 30.00000000000000000 ) ) ;
#147 = AXIS2_PLACEMENT_3D ( 'NONE', #44, #12, #225 ) ;
#148 = CYLINDRICAL_SURFACE ( 'NONE', #26, 25.00000000000000000 ) ;
#149 = ADVANCED_FACE ( 'NONE', ( #249, #17 ), #276, .T. ) ;
#150 = ORIENTED_EDGE ( 'NONE', *, *, #88, .F. ) ;
#151 = ORIENTED_EDGE ( 'NONE', *, *, #224, .F. ) ;
#152 = DIRECTION ( 'NONE',  ( 0.000000000000000000, 0.000000000000000000, 1.000000000000000000 ) ) ;
#153 = CARTESIAN_POINT ( 'NONE',  ( 0.000000000000000000, 0.000000000000000000, 63.00000000000000000 ) ) ;
#154 = ADVANCED_FACE ( 'NONE', ( #86, #221 ), #124, .F. ) ;
#155 = CC_DESIGN_PERSON_AND_ORGANIZATION_ASSIGNMENT ( #180, #293, ( #71 ) ) ;
#156 = DIRECTION ( 'NONE',  ( 1.000000000000000000, 0.000000000000000000, 0.000000000000000000 ) ) ;
#157 = DIRECTION ( 'NONE',  ( -0.000000000000000000, -0.000000000000000000, -1.000000000000000000 ) ) ;
#158 = CARTESIAN_POINT ( 'NONE',  ( -5.000000000000000000, 0.000000000000000000, 0.000000000000000000 ) ) ;
#159 = CIRCLE ( 'NONE', #253, 5.000000000000000000 ) ;
#160 = AXIS2_PLACEMENT_3D ( 'NONE', #355, #298, #382 ) ;
#161 = EDGE_LOOP ( 'NONE', ( #82, #208 ) ) ;
#162 = AXIS2_PLACEMENT_3D ( 'NONE', #288, #291, #105 ) ;
#163 = PERSON_AND_ORGANIZATION ( #340, #137 ) ;
#164 = EDGE_CURVE ( 'NONE', #231, #39, #317, .T. ) ;
#165 = ORIENTED_EDGE ( 'NONE', *, *, #256, .T. ) ;
#166 = DIRECTION ( 'NONE',  ( 1.000000000000000000, 0.000000000000000000, 0.000000000000000000 ) ) ;
#167 = DIRECTION ( 'NONE',  ( -0.7071067811865444641, 0.000000000000000000, -0.7071067811865505703 ) ) ;
#168 = MECHANICAL_CONTEXT ( 'NONE', #139, 'mechanical' ) ;
#169 = VERTEX_POINT ( 'NONE', #32 ) ;
#170 = ORIENTED_EDGE ( 'NONE', *, *, #381, .T. ) ;
#171 = DATE_TIME_ROLE ( 'classification_date' ) ;
#172 = PERSON_AND_ORGANIZATION ( #340, #137 ) ;
#173 = ORIENTED_EDGE ( 'NONE', *, *, #381, .F. ) ;
#174 = AXIS2_PLACEMENT_3D ( 'NONE', #309, #313, #117 ) ;
#175 = PLANE ( 'NONE',  #34 ) ;
#176 = DIRECTION ( 'NONE',  ( 0.000000000000000000, 0.000000000000000000, 1.000000000000000000 ) ) ;
#177 = DIRECTION ( 'NONE',  ( -0.000000000000000000, -0.000000000000000000, -1.000000000000000000 ) ) ;
#178 = AXIS2_PLACEMENT_3D ( 'NONE', #146, #176, #143 ) ;
#179 = DIRECTION ( 'NONE',  ( 0.000000000000000000, 0.000000000000000000, -1.000000000000000000 ) ) ;
#180 = PERSON_AND_ORGANIZATION ( #340, #137 ) ;
#181 = VECTOR ( 'NONE', #193, 1000.000000000000000 ) ;
#182 = CARTESIAN_POINT ( 'NONE',  ( 5.000000000000000000, 6.123233995736766282E-16, 63.00000000000000000 ) ) ;
#183 = ADVANCED_FACE ( 'NONE', ( #7 ), #375, .T. ) ;
#184 = DIRECTION ( 'NONE',  ( 1.000000000000000000, 0.000000000000000000, 0.000000000000000000 ) ) ;
#185 = DIRECTION ( 'NONE',  ( -1.000000000000000000, 0.000000000000000000, 0.000000000000000000 ) ) ;
#186 = DIRECTION ( 'NONE',  ( 1.000000000000000000, 0.000000000000000000, -0.000000000000000000 ) ) ;
#187 = COORDINATED_UNIVERSAL_TIME_OFFSET ( 1, 0, .AHEAD. ) ;
#188 = FACE_OUTER_BOUND ( 'NONE', #360, .T. ) ;
#189 = ORIENTED_EDGE ( 'NONE', *, *, #85, .F. ) ;
#190 = DESIGN_CONTEXT ( 'detailed design', #294, 'design' ) ;
#191 = PERSON_AND_ORGANIZATION ( #340, #137 ) ;
#192 = ORIENTED_EDGE ( 'NONE', *, *, #272, .T. ) ;
#193 = DIRECTION ( 'NONE',  ( -0.000000000000000000, -0.000000000000000000, -1.000000000000000000 ) ) ;
#194 = CARTESIAN_POINT ( 'NONE',  ( 0.000000000000000000, 0.000000000000000000, 8.000000000000000000 ) ) ;
#195 = CC_DESIGN_PERSON_AND_ORGANIZATION_ASSIGNMENT ( #28, #83, ( #307 ) ) ;
#196 = EDGE_LOOP ( 'NONE', ( #132, #243, #120, #56 ) ) ;
#197 =( NAMED_UNIT ( * ) SI_UNIT ( $, .STERADIAN. ) SOLID_ANGLE_UNIT ( ) );
#198 = ORIENTED_EDGE ( 'NONE', *, *, #329, .F. ) ;
#199 = APPLICATION_PROTOCOL_DEFINITION ( 'international standard', 'config_control_design', 1994, #294 ) ;
#200 = AXIS2_PLACEMENT_3D ( 'NONE', #271, #303, #54 ) ;
#201 = APPROVAL_STATUS ( 'not_yet_approved' ) ;
#202 = DATE_AND_TIME ( #209, #118 ) ;
#203 = AXIS2_PLACEMENT_3D ( 'NONE', #80, #52, #107 ) ;
#204 = CIRCLE ( 'NONE', #178, 25.00000000000000000 ) ;
#205 = ORIENTED_EDGE ( 'NONE', *, *, #310, .F. ) ;
#206 = DIRECTION ( 'NONE',  ( -0.000000000000000000, -0.000000000000000000, -1.000000000000000000 ) ) ;
#207 = CIRCLE ( 'NONE', #160, 5.000000000000000000 ) ;
#208 = ORIENTED_EDGE ( 'NONE', *, *, #256, .F. ) ;
#209 = CALENDAR_DATE ( 2022, 10, 3 ) ;
#210 = LINE ( 'NONE', #235, #369 ) ;
#211 = ORIENTED_EDGE ( 'NONE', *, *, #18, .F. ) ;
#212 = CC_DESIGN_APPROVAL ( #368, ( #377 ) ) ;
#213 = CARTESIAN_POINT ( 'NONE',  ( 0.000000000000000000, 0.000000000000000000, 63.00000000000000000 ) ) ;
#214 = AXIS2_PLACEMENT_3D ( 'NONE', #274, #1, #93 ) ;
#215 = CIRCLE ( 'NONE', #350, 5.000000000000000000 ) ;
#216 = CARTESIAN_POINT ( 'NONE',  ( 25.00000000000000000, 3.061616997868383043E-15, 0.000000000000000000 ) ) ;
#217 = EDGE_LOOP ( 'NONE', ( #205, #211, #296, #73 ) ) ;
#218 = DIRECTION ( 'NONE',  ( -1.000000000000000000, 0.000000000000000000, 0.000000000000000000 ) ) ;
#219 = CC_DESIGN_PERSON_AND_ORGANIZATION_ASSIGNMENT ( #191, #108, ( #46 ) ) ;
#220 = AXIS2_PLACEMENT_3D ( 'NONE', #123, #179, #115 ) ;
#221 = FACE_OUTER_BOUND ( 'NONE', #19, .T. ) ;
#222 = ORIENTED_EDGE ( 'NONE', *, *, #116, .T. ) ;
#223 = EDGE_LOOP ( 'NONE', ( #359, #320, #165, #255 ) ) ;
#224 = EDGE_CURVE ( 'NONE', #292, #330, #90, .T. ) ;
#225 = DIRECTION ( 'NONE',  ( -1.000000000000000000, 0.000000000000000000, 0.000000000000000000 ) ) ;
#226 = CARTESIAN_POINT ( 'NONE',  ( 0.000000000000000000, 0.000000000000000000, 30.00000000000000000 ) ) ;
#227 = LINE ( 'NONE', #79, #282 ) ;
#228 = DIRECTION ( 'NONE',  ( -0.000000000000000000, -0.000000000000000000, -1.000000000000000000 ) ) ;
#229 = DATE_TIME_ROLE ( 'creation_date' ) ;
#230 = FACE_OUTER_BOUND ( 'NONE', #48, .T. ) ;
#231 = VERTEX_POINT ( 'NONE', #280 ) ;
#232 = DIRECTION ( 'NONE',  ( -1.000000000000000000, 0.000000000000000000, 0.000000000000000000 ) ) ;
#233 = ORIENTED_EDGE ( 'NONE', *, *, #318, .F. ) ;
#234 = DIRECTION ( 'NONE',  ( 0.000000000000000000, 0.000000000000000000, -1.000000000000000000 ) ) ;
#235 = CARTESIAN_POINT ( 'NONE',  ( -5.000000000000000000, 0.000000000000000000, 8.000000000000000000 ) ) ;
#236 = COORDINATED_UNIVERSAL_TIME_OFFSET ( 1, 0, .AHEAD. ) ;
#237 = DIRECTION ( 'NONE',  ( 0.000000000000000000, 0.000000000000000000, -1.000000000000000000 ) ) ;
#238 = CYLINDRICAL_SURFACE ( 'NONE', #113, 5.000000000000000000 ) ;
#239 = EDGE_LOOP ( 'NONE', ( #301, #49, #319, #173 ) ) ;
#240 = CARTESIAN_POINT ( 'NONE',  ( -4.500000000000017764, 0.000000000000000000, 63.00000000000000000 ) ) ;
#241 = PRODUCT_RELATED_PRODUCT_CATEGORY ( 'detail', '', ( #71 ) ) ;
#242 = VECTOR ( 'NONE', #338, 1000.000000000000000 ) ;
#243 = ORIENTED_EDGE ( 'NONE', *, *, #85, .T. ) ;
#244 = AXIS2_PLACEMENT_3D ( 'NONE', #121, #152, #335 ) ;
#245 = DIRECTION ( 'NONE',  ( 0.000000000000000000, 0.000000000000000000, 1.000000000000000000 ) ) ;
#246 = DIRECTION ( 'NONE',  ( 1.000000000000000000, 0.000000000000000000, 0.000000000000000000 ) ) ;
#247 = DIRECTION ( 'NONE',  ( -1.000000000000000000, 0.000000000000000000, 0.000000000000000000 ) ) ;
#248 = SHAPE_DEFINITION_REPRESENTATION ( #324, #305 ) ;
#249 = FACE_BOUND ( 'NONE', #138, .T. ) ;
#250 = VERTEX_POINT ( 'NONE', #58 ) ;
#251 = DIRECTION ( 'NONE',  ( 1.000000000000000000, 0.000000000000000000, 0.000000000000000000 ) ) ;
#252 = ADVANCED_FACE ( 'NONE', ( #380 ), #148, .T. ) ;
#253 = AXIS2_PLACEMENT_3D ( 'NONE', #334, #29, #60 ) ;
#254 = FACE_OUTER_BOUND ( 'NONE', #308, .T. ) ;
#255 = ORIENTED_EDGE ( 'NONE', *, *, #10, .F. ) ;
#256 = EDGE_CURVE ( 'NONE', #330, #353, #215, .T. ) ;
#257 = APPROVAL_DATE_TIME ( #66, #94 ) ;
#258 = DIRECTION ( 'NONE',  ( -0.000000000000000000, -0.000000000000000000, -1.000000000000000000 ) ) ;
#259 = AXIS2_PLACEMENT_3D ( 'NONE', #226, #258, #75 ) ;
#260 = COORDINATED_UNIVERSAL_TIME_OFFSET ( 1, 0, .AHEAD. ) ;
#261 = APPROVAL_STATUS ( 'not_yet_approved' ) ;
#262 = AXIS2_PLACEMENT_3D ( 'NONE', #316, #14, #185 ) ;
#263 = APPROVAL_ROLE ( '' ) ;
#264 = APPLICATION_PROTOCOL_DEFINITION ( 'international standard', 'config_control_design', 1994, #139 ) ;
#265 = COORDINATED_UNIVERSAL_TIME_OFFSET ( 1, 0, .AHEAD. ) ;
#266 = LINE ( 'NONE', #63, #337 ) ;
#267 = DIRECTION ( 'NONE',  ( 0.000000000000000000, 0.000000000000000000, 1.000000000000000000 ) ) ;
#268 = DIRECTION ( 'NONE',  ( -1.000000000000000000, 0.000000000000000000, -0.000000000000000000 ) ) ;
#269 = CYLINDRICAL_SURFACE ( 'NONE', #259, 25.00000000000000000 ) ;
#270 = AXIS2_PLACEMENT_3D ( 'NONE', #213, #35, #247 ) ;
#271 = CARTESIAN_POINT ( 'NONE',  ( 0.000000000000000000, 0.000000000000000000, 63.00000000000000000 ) ) ;
#272 = EDGE_CURVE ( 'NONE', #292, #169, #114, .T. ) ;
#273 = CARTESIAN_POINT ( 'NONE',  ( 0.000000000000000000, 0.000000000000000000, 0.000000000000000000 ) ) ;
#274 = CARTESIAN_POINT ( 'NONE',  ( 0.000000000000000000, 0.000000000000000000, 30.00000000000000000 ) ) ;
#275 = MANIFOLD_SOLID_BREP ( 'Taglio-Estrusione1', #101 ) ;
#276 = PLANE ( 'NONE',  #214 ) ;
#277 = CONICAL_SURFACE ( 'NONE', #40, 4.500000000000017764, 0.7853981633974439491 ) ;
#278 = DIRECTION ( 'NONE',  ( -0.000000000000000000, -0.000000000000000000, -1.000000000000000000 ) ) ;
#279 = ADVANCED_FACE ( 'NONE', ( #254 ), #238, .F. ) ;
#280 = CARTESIAN_POINT ( 'NONE',  ( 4.500000000000017764, 5.817072295949938273E-16, 63.00000000000000000 ) ) ;
#281 = DIRECTION ( 'NONE',  ( 0.7071067811865444641, 8.659560562354895880E-17, -0.7071067811865505703 ) ) ;
#282 = VECTOR ( 'NONE', #167, 1000.000000000000227 ) ;
#283 = ORIENTED_EDGE ( 'NONE', *, *, #18, .T. ) ;
#284 = EDGE_LOOP ( 'NONE', ( #98, #192 ) ) ;
#285 = APPROVAL ( #201, 'NON SPECIFICATO' ) ;
#286 = DATE_AND_TIME ( #11, #371 ) ;
#287 = VERTEX_POINT ( 'NONE', #216 ) ;
#288 = CARTESIAN_POINT ( 'NONE',  ( 0.000000000000000000, 0.000000000000000000, 30.00000000000000000 ) ) ;
#289 = FACE_OUTER_BOUND ( 'NONE', #223, .T. ) ;
#290 = VERTEX_POINT ( 'NONE', #372 ) ;
#291 = DIRECTION ( 'NONE',  ( 0.000000000000000000, 0.000000000000000000, 1.000000000000000000 ) ) ;
#292 = VERTEX_POINT ( 'NONE', #45 ) ;
#293 = PERSON_AND_ORGANIZATION_ROLE ( 'design_owner' ) ;
#294 = APPLICATION_CONTEXT ( 'configuration controlled 3d designs of mechanical parts and assemblies' ) ;
#295 = APPROVAL_PERSON_ORGANIZATION ( #172, #368, #263 ) ;
#296 = ORIENTED_EDGE ( 'NONE', *, *, #329, .T. ) ;
#297 = ORIENTED_EDGE ( 'NONE', *, *, #318, .T. ) ;
#298 = DIRECTION ( 'NONE',  ( 0.000000000000000000, 0.000000000000000000, -1.000000000000000000 ) ) ;
#299 = CALENDAR_DATE ( 2022, 10, 3 ) ;
#300 = LINE ( 'NONE', #373, #181 ) ;
#301 = ORIENTED_EDGE ( 'NONE', *, *, #164, .F. ) ;
#302 = ADVANCED_FACE ( 'NONE', ( #230 ), #370, .T. ) ;
#303 = DIRECTION ( 'NONE',  ( 0.000000000000000000, 0.000000000000000000, -1.000000000000000000 ) ) ;
#304 = CARTESIAN_POINT ( 'NONE',  ( 0.000000000000000000, 0.000000000000000000, 30.00000000000000000 ) ) ;
#305 = ADVANCED_BREP_SHAPE_REPRESENTATION ( '5SU1038_ Anti vibration mount', ( #275, #203 ), #81 ) ;
#306 = CYLINDRICAL_SURFACE ( 'NONE', #383, 5.000000000000000000 ) ;
#307 = SECURITY_CLASSIFICATION ( '', '', #352 ) ;
#308 = EDGE_LOOP ( 'NONE', ( #151, #344, #129, #378 ) ) ;
#309 = CARTESIAN_POINT ( 'NONE',  ( 0.000000000000000000, 0.000000000000000000, 0.000000000000000000 ) ) ;
#310 = EDGE_CURVE ( 'NONE', #290, #287, #47, .T. ) ;
#311 = DIRECTION ( 'NONE',  ( -0.000000000000000000, -0.000000000000000000, -1.000000000000000000 ) ) ;
#312 = ADVANCED_FACE ( 'NONE', ( #289 ), #306, .F. ) ;
#313 = DIRECTION ( 'NONE',  ( 0.000000000000000000, 0.000000000000000000, 1.000000000000000000 ) ) ;
#314 = CYLINDRICAL_SURFACE ( 'NONE', #147, 5.000000000000000000 ) ;
#315 = CARTESIAN_POINT ( 'NONE',  ( 0.000000000000000000, 0.000000000000000000, 63.00000000000000000 ) ) ;
#316 = CARTESIAN_POINT ( 'NONE',  ( 0.000000000000000000, 0.000000000000000000, 8.000000000000000000 ) ) ;
#317 = CIRCLE ( 'NONE', #244, 4.500000000000017764 ) ;
#318 = EDGE_CURVE ( 'NONE', #287, #326, #325, .T. ) ;
#319 = ORIENTED_EDGE ( 'NONE', *, *, #15, .F. ) ;
#320 = ORIENTED_EDGE ( 'NONE', *, *, #224, .T. ) ;
#321 = CC_DESIGN_DATE_AND_TIME_ASSIGNMENT ( #379, #229, ( #46 ) ) ;
#322 = CARTESIAN_POINT ( 'NONE',  ( -25.00000000000000000, 0.000000000000000000, 30.00000000000000000 ) ) ;
#323 = CIRCLE ( 'NONE', #162, 5.000000000000000000 ) ;
#324 = PRODUCT_DEFINITION_SHAPE ( 'NONE', 'NONE',  #46 ) ;
#325 = CIRCLE ( 'NONE', #57, 25.00000000000000000 ) ;
#326 = VERTEX_POINT ( 'NONE', #6 ) ;
#327 = PERSON_AND_ORGANIZATION_ROLE ( 'design_supplier' ) ;
#328 = APPROVAL_ROLE ( '' ) ;
#329 = EDGE_CURVE ( 'NONE', #376, #326, #300, .T. ) ;
#330 = VERTEX_POINT ( 'NONE', #69 ) ;
#331 = ADVANCED_FACE ( 'NONE', ( #134 ), #314, .T. ) ;
#332 = ORIENTED_EDGE ( 'NONE', *, *, #36, .F. ) ;
#333 = EDGE_CURVE ( 'NONE', #231, #8, #358, .T. ) ;
#334 = CARTESIAN_POINT ( 'NONE',  ( 0.000000000000000000, 0.000000000000000000, 8.000000000000000000 ) ) ;
#335 = DIRECTION ( 'NONE',  ( 1.000000000000000000, 0.000000000000000000, 0.000000000000000000 ) ) ;
#336 = CALENDAR_DATE ( 2022, 10, 3 ) ;
#337 = VECTOR ( 'NONE', #311, 1000.000000000000000 ) ;
#338 = DIRECTION ( 'NONE',  ( -0.000000000000000000, -0.000000000000000000, -1.000000000000000000 ) ) ;
#339 = AXIS2_PLACEMENT_3D ( 'NONE', #273, #385, #246 ) ;
#340 = PERSON ( 'NON SPECIFICATO', 'NON SPECIFICATO', 'NON SPECIFICATO', ('NON SPECIFICATO'), ('NON SPECIFICATO'), ('NON SPECIFICATO') ) ;
#341 = DIRECTION ( 'NONE',  ( -1.000000000000000000, 0.000000000000000000, 0.000000000000000000 ) ) ;
#342 = PERSON_AND_ORGANIZATION ( #340, #137 ) ;
#343 = CARTESIAN_POINT ( 'NONE',  ( 0.000000000000000000, 0.000000000000000000, 0.000000000000000000 ) ) ;
#344 = ORIENTED_EDGE ( 'NONE', *, *, #142, .F. ) ;
#345 = FACE_OUTER_BOUND ( 'NONE', #3, .T. ) ;
#346 = ORIENTED_EDGE ( 'NONE', *, *, #122, .T. ) ;
#347 = DIRECTION ( 'NONE',  ( 0.000000000000000000, 0.000000000000000000, -1.000000000000000000 ) ) ;
#348 = DIRECTION ( 'NONE',  ( -1.000000000000000000, 0.000000000000000000, 0.000000000000000000 ) ) ;
#349 = VECTOR ( 'NONE', #281, 1000.000000000000227 ) ;
#350 = AXIS2_PLACEMENT_3D ( 'NONE', #343, #347, #341 ) ;
#351 = EDGE_CURVE ( 'NONE', #364, #250, #323, .T. ) ;
#352 = SECURITY_CLASSIFICATION_LEVEL ( 'unclassified' ) ;
#353 = VERTEX_POINT ( 'NONE', #158 ) ;
#354 = UNCERTAINTY_MEASURE_WITH_UNIT (LENGTH_MEASURE( 1.000000000000000082E-05 ), #84, 'distance_accuracy_value', 'NONE');
#355 = CARTESIAN_POINT ( 'NONE',  ( 0.000000000000000000, 0.000000000000000000, 62.50000000000001421 ) ) ;
#356 = AXIS2_PLACEMENT_3D ( 'NONE', #367, #245, #251 ) ;
#357 = CALENDAR_DATE ( 2022, 10, 3 ) ;
#358 = LINE ( 'NONE', #130, #349 ) ;
#359 = ORIENTED_EDGE ( 'NONE', *, *, #272, .F. ) ;
#360 = EDGE_LOOP ( 'NONE', ( #332, #92, #297, #198 ) ) ;
#361 = CARTESIAN_POINT ( 'NONE',  ( 0.000000000000000000, 0.000000000000000000, 63.00000000000000000 ) ) ;
#362 = CC_DESIGN_PERSON_AND_ORGANIZATION_ASSIGNMENT ( #41, #327, ( #377 ) ) ;
#363 = ADVANCED_FACE ( 'NONE', ( #188 ), #269, .T. ) ;
#364 = VERTEX_POINT ( 'NONE', #104 ) ;
#365 = EDGE_CURVE ( 'NONE', #353, #330, #23, .T. ) ;
#366 = DIRECTION ( 'NONE',  ( -1.000000000000000000, 0.000000000000000000, 0.000000000000000000 ) ) ;
#367 = CARTESIAN_POINT ( 'NONE',  ( 0.000000000000000000, 0.000000000000000000, 30.00000000000000000 ) ) ;
#368 = APPROVAL ( #261, 'NON SPECIFICATO' ) ;
#369 = VECTOR ( 'NONE', #206, 1000.000000000000000 ) ;
#370 = PLANE ( 'NONE',  #68 ) ;
#371 = LOCAL_TIME ( 15, 2, 37.00000000000000000, #236 ) ;
#372 = CARTESIAN_POINT ( 'NONE',  ( 25.00000000000000000, 3.061616997868383043E-15, 30.00000000000000000 ) ) ;
#373 = CARTESIAN_POINT ( 'NONE',  ( -25.00000000000000000, 0.000000000000000000, 30.00000000000000000 ) ) ;
#374 = DATE_AND_TIME ( #299, #131 ) ;
#375 = CYLINDRICAL_SURFACE ( 'NONE', #270, 5.000000000000000000 ) ;
#376 = VERTEX_POINT ( 'NONE', #322 ) ;
#377 = PRODUCT_DEFINITION_FORMATION_WITH_SPECIFIED_SOURCE ( 'TUTTO', '', #71, .NOT_KNOWN. ) ;
#378 = ORIENTED_EDGE ( 'NONE', *, *, #365, .T. ) ;
#379 = DATE_AND_TIME ( #357, #111 ) ;
#380 = FACE_OUTER_BOUND ( 'NONE', #217, .T. ) ;
#381 = EDGE_CURVE ( 'NONE', #39, #38, #227, .T. ) ;
#382 = DIRECTION ( 'NONE',  ( 1.000000000000000000, 0.000000000000000000, 0.000000000000000000 ) ) ;
#383 = AXIS2_PLACEMENT_3D ( 'NONE', #133, #228, #348 ) ;
#384 = ORIENTED_EDGE ( 'NONE', *, *, #333, .F. ) ;
#385 = DIRECTION ( 'NONE',  ( 0.000000000000000000, 0.000000000000000000, 1.000000000000000000 ) ) ;
ENDSEC;
END-ISO-10303-21;
