ISO-10303-21;
HEADER;
FILE_DESCRIPTION (( 'STEP AP203' ),
    '1' );
FILE_NAME ('5SU1030_ Anti vibration mount.STEP',
    '2022-03-10T14:03:07',
    ( '' ),
    ( '' ),
    'SwSTEP 2.0',
    'SolidWorks 2018',
    '' );
FILE_SCHEMA (( 'CONFIG_CONTROL_DESIGN' ));
ENDSEC;

DATA;
#1 = CYLINDRICAL_SURFACE ( 'NONE', #92, 6.000000000000000888 ) ;
#2 = FACE_OUTER_BOUND ( 'NONE', #330, .T. ) ;
#3 = CC_DESIGN_PERSON_AND_ORGANIZATION_ASSIGNMENT ( #314, #172, ( #144 ) ) ;
#4 = EDGE_CURVE ( 'NONE', #90, #312, #76, .T. ) ;
#5 = CARTESIAN_POINT ( 'NONE',  ( 0.000000000000000000, 0.000000000000000000, 0.000000000000000000 ) ) ;
#6 = DIRECTION ( 'NONE',  ( -0.7071067811865549002, 0.000000000000000000, -0.7071067811865401342 ) ) ;
#7 = ORIENTED_EDGE ( 'NONE', *, *, #384, .F. ) ;
#8 = DIRECTION ( 'NONE',  ( -0.000000000000000000, -0.000000000000000000, -1.000000000000000000 ) ) ;
#9 = DIRECTION ( 'NONE',  ( 1.000000000000000000, 0.000000000000000000, 0.000000000000000000 ) ) ;
#10 = AXIS2_PLACEMENT_3D ( 'NONE', #185, #287, #74 ) ;
#11 = DIRECTION ( 'NONE',  ( 1.000000000000000000, 0.000000000000000000, 0.000000000000000000 ) ) ;
#12 = LINE ( 'NONE', #157, #243 ) ;
#13 = CARTESIAN_POINT ( 'NONE',  ( 0.000000000000000000, 0.000000000000000000, 91.50000000000007105 ) ) ;
#14 = CARTESIAN_POINT ( 'NONE',  ( -6.000000000000000888, 0.000000000000000000, 0.000000000000000000 ) ) ;
#15 = DIRECTION ( 'NONE',  ( -0.000000000000000000, -0.000000000000000000, -1.000000000000000000 ) ) ;
#16 = ADVANCED_FACE ( 'NONE', ( #125 ), #341, .T. ) ;
#17 = PRODUCT_DEFINITION ( 'NON CONOSCIUTO', '', #88, #156 ) ;
#18 = CARTESIAN_POINT ( 'NONE',  ( 0.000000000000000000, 0.000000000000000000, 8.000000000000000000 ) ) ;
#19 = CALENDAR_DATE ( 2022, 10, 3 ) ;
#20 = LINE ( 'NONE', #244, #353 ) ;
#21 = ORIENTED_EDGE ( 'NONE', *, *, #127, .F. ) ;
#22 = CARTESIAN_POINT ( 'NONE',  ( 6.000000000000000888, 7.347880794884120722E-16, 8.000000000000000000 ) ) ;
#23 = APPROVAL_ROLE ( '' ) ;
#24 = APPLICATION_CONTEXT ( 'configuration controlled 3d designs of mechanical parts and assemblies' ) ;
#25 = FACE_OUTER_BOUND ( 'NONE', #150, .T. ) ;
#26 = CYLINDRICAL_SURFACE ( 'NONE', #381, 6.000000000000000888 ) ;
#27 = CARTESIAN_POINT ( 'NONE',  ( 0.000000000000000000, 0.000000000000000000, 0.000000000000000000 ) ) ;
#28 = AXIS2_PLACEMENT_3D ( 'NONE', #347, #261, #370 ) ;
#29 = DIRECTION ( 'NONE',  ( 0.000000000000000000, 0.000000000000000000, 1.000000000000000000 ) ) ;
#30 = EDGE_CURVE ( 'NONE', #77, #372, #37, .T. ) ;
#31 = ORIENTED_EDGE ( 'NONE', *, *, #374, .T. ) ;
#32 = ORIENTED_EDGE ( 'NONE', *, *, #108, .T. ) ;
#33 = UNCERTAINTY_MEASURE_WITH_UNIT (LENGTH_MEASURE( 1.000000000000000082E-05 ), #270, 'distance_accuracy_value', 'NONE');
#34 = APPROVAL_PERSON_ORGANIZATION ( #113, #145, #269 ) ;
#35 = LOCAL_TIME ( 15, 3, 7.000000000000000000, #114 ) ;
#36 = AXIS2_PLACEMENT_3D ( 'NONE', #91, #102, #129 ) ;
#37 = CIRCLE ( 'NONE', #334, 5.500000000000059508 ) ;
#38 = CARTESIAN_POINT ( 'NONE',  ( 0.000000000000000000, 0.000000000000000000, 8.000000000000000000 ) ) ;
#39 = CYLINDRICAL_SURFACE ( 'NONE', #378, 6.000000000000000888 ) ;
#40 = EDGE_LOOP ( 'NONE', ( #71, #131 ) ) ;
#41 = DIRECTION ( 'NONE',  ( 0.7071067811865549002, 8.659560562355022838E-17, -0.7071067811865401342 ) ) ;
#42 = APPROVAL ( #147, 'NON SPECIFICATO' ) ;
#43 = CARTESIAN_POINT ( 'NONE',  ( 0.000000000000000000, 0.000000000000000000, 8.000000000000000000 ) ) ;
#44 = DIRECTION ( 'NONE',  ( 0.000000000000000000, 0.000000000000000000, -1.000000000000000000 ) ) ;
#45 = CARTESIAN_POINT ( 'NONE',  ( -6.000000000000000888, 0.000000000000000000, 8.000000000000000000 ) ) ;
#46 = FACE_OUTER_BOUND ( 'NONE', #138, .T. ) ;
#47 = ORIENTED_EDGE ( 'NONE', *, *, #271, .T. ) ;
#48 = ADVANCED_FACE ( 'NONE', ( #345 ), #39, .T. ) ;
#49 = CARTESIAN_POINT ( 'NONE',  ( -6.000000000000000888, 0.000000000000000000, 50.00000000000000000 ) ) ;
#50 = VERTEX_POINT ( 'NONE', #155 ) ;
#51 = DIRECTION ( 'NONE',  ( -0.000000000000000000, -0.000000000000000000, -1.000000000000000000 ) ) ;
#52 = ORIENTED_EDGE ( 'NONE', *, *, #135, .T. ) ;
#53 = EDGE_CURVE ( 'NONE', #68, #276, #20, .T. ) ;
#54 = DIRECTION ( 'NONE',  ( 0.000000000000000000, 0.000000000000000000, 1.000000000000000000 ) ) ;
#55 = CARTESIAN_POINT ( 'NONE',  ( 6.000000000000000888, 7.347880794884119736E-16, 91.50000000000007105 ) ) ;
#56 = APPLICATION_CONTEXT ( 'configuration controlled 3d designs of mechanical parts and assemblies' ) ;
#57 = ORIENTED_EDGE ( 'NONE', *, *, #245, .F. ) ;
#58 = PERSON_AND_ORGANIZATION ( #299, #383 ) ;
#59 = SECURITY_CLASSIFICATION_LEVEL ( 'unclassified' ) ;
#60 = EDGE_LOOP ( 'NONE', ( #61, #126 ) ) ;
#61 = ORIENTED_EDGE ( 'NONE', *, *, #117, .T. ) ;
#62 = LINE ( 'NONE', #295, #143 ) ;
#63 = ORIENTED_EDGE ( 'NONE', *, *, #163, .F. ) ;
#64 = DIRECTION ( 'NONE',  ( -1.000000000000000000, 0.000000000000000000, 0.000000000000000000 ) ) ;
#65 = CARTESIAN_POINT ( 'NONE',  ( 0.000000000000000000, 0.000000000000000000, 92.00000000000000000 ) ) ;
#66 = LOCAL_TIME ( 15, 3, 7.000000000000000000, #306 ) ;
#67 = CC_DESIGN_DATE_AND_TIME_ASSIGNMENT ( #153, #149, ( #17 ) ) ;
#68 = VERTEX_POINT ( 'NONE', #305 ) ;
#69 = CLOSED_SHELL ( 'NONE', ( #282, #294, #48, #16, #160, #195, #249, #139, #109, #100, #222, #363 ) ) ;
#70 = CYLINDRICAL_SURFACE ( 'NONE', #344, 6.000000000000000888 ) ;
#71 = ORIENTED_EDGE ( 'NONE', *, *, #30, .T. ) ;
#72 = DIRECTION ( 'NONE',  ( -1.000000000000000000, 0.000000000000000000, 0.000000000000000000 ) ) ;
#73 = AXIS2_PLACEMENT_3D ( 'NONE', #168, #111, #319 ) ;
#74 = DIRECTION ( 'NONE',  ( 1.000000000000000000, 0.000000000000000000, -0.000000000000000000 ) ) ;
#75 = DIRECTION ( 'NONE',  ( 0.000000000000000000, 0.000000000000000000, -1.000000000000000000 ) ) ;
#76 = LINE ( 'NONE', #360, #301 ) ;
#77 = VERTEX_POINT ( 'NONE', #241 ) ;
#78 = CARTESIAN_POINT ( 'NONE',  ( 5.500000000000059508, 7.041719095097317364E-16, 92.00000000000000000 ) ) ;
#79 = DIRECTION ( 'NONE',  ( 0.000000000000000000, 0.000000000000000000, -1.000000000000000000 ) ) ;
#80 = CC_DESIGN_APPROVAL ( #106, ( #88 ) ) ;
#81 = DIRECTION ( 'NONE',  ( 1.000000000000000000, 0.000000000000000000, -0.000000000000000000 ) ) ;
#82 = CIRCLE ( 'NONE', #178, 37.50000000000000711 ) ;
#83 = DIRECTION ( 'NONE',  ( -1.000000000000000000, 0.000000000000000000, 0.000000000000000000 ) ) ;
#84 = EDGE_CURVE ( 'NONE', #50, #346, #316, .T. ) ;
#85 = APPROVAL_STATUS ( 'not_yet_approved' ) ;
#86 = APPLICATION_PROTOCOL_DEFINITION ( 'international standard', 'config_control_design', 1994, #56 ) ;
#87 = EDGE_LOOP ( 'NONE', ( #355, #359, #260, #104 ) ) ;
#88 = PRODUCT_DEFINITION_FORMATION_WITH_SPECIFIED_SOURCE ( 'TUTTO', '', #144, .NOT_KNOWN. ) ;
#89 = PERSON_AND_ORGANIZATION_ROLE ( 'creator' ) ;
#90 = VERTEX_POINT ( 'NONE', #121 ) ;
#91 = CARTESIAN_POINT ( 'NONE',  ( 0.000000000000000000, 0.000000000000000000, 92.00000000000000000 ) ) ;
#92 = AXIS2_PLACEMENT_3D ( 'NONE', #43, #248, #132 ) ;
#93 = CIRCLE ( 'NONE', #158, 6.000000000000000888 ) ;
#94 = FACE_OUTER_BOUND ( 'NONE', #292, .T. ) ;
#95 = DIRECTION ( 'NONE',  ( -0.000000000000000000, -0.000000000000000000, -1.000000000000000000 ) ) ;
#96 = LOCAL_TIME ( 15, 3, 7.000000000000000000, #204 ) ;
#97 = DIRECTION ( 'NONE',  ( -1.000000000000000000, 0.000000000000000000, 0.000000000000000000 ) ) ;
#98 = EDGE_LOOP ( 'NONE', ( #303, #209, #32, #47 ) ) ;
#99 = VERTEX_POINT ( 'NONE', #151 ) ;
#100 = ADVANCED_FACE ( 'NONE', ( #2 ), #107, .T. ) ;
#101 = EDGE_CURVE ( 'NONE', #372, #255, #12, .T. ) ;
#102 = DIRECTION ( 'NONE',  ( 0.000000000000000000, 0.000000000000000000, -1.000000000000000000 ) ) ;
#103 = PERSON_AND_ORGANIZATION ( #299, #383 ) ;
#104 = ORIENTED_EDGE ( 'NONE', *, *, #247, .T. ) ;
#105 = DIRECTION ( 'NONE',  ( -1.000000000000000000, 0.000000000000000000, -0.000000000000000000 ) ) ;
#106 = APPROVAL ( #350, 'NON SPECIFICATO' ) ;
#107 = CONICAL_SURFACE ( 'NONE', #36, 5.500000000000059508, 0.7853981633974587151 ) ;
#108 = EDGE_CURVE ( 'NONE', #50, #382, #236, .T. ) ;
#109 = ADVANCED_FACE ( 'NONE', ( #246 ), #162, .T. ) ;
#110 = ORIENTED_EDGE ( 'NONE', *, *, #84, .T. ) ;
#111 = DIRECTION ( 'NONE',  ( 0.000000000000000000, 0.000000000000000000, -1.000000000000000000 ) ) ;
#112 = DIRECTION ( 'NONE',  ( 0.000000000000000000, 0.000000000000000000, 1.000000000000000000 ) ) ;
#113 = PERSON_AND_ORGANIZATION ( #299, #383 ) ;
#114 = COORDINATED_UNIVERSAL_TIME_OFFSET ( 1, 0, .AHEAD. ) ;
#115 = ORIENTED_EDGE ( 'NONE', *, *, #101, .F. ) ;
#116 = AXIS2_PLACEMENT_3D ( 'NONE', #253, #362, #72 ) ;
#117 = EDGE_CURVE ( 'NONE', #99, #68, #329, .T. ) ;
#118 = PERSON_AND_ORGANIZATION_ROLE ( 'classification_officer' ) ;
#119 = ORIENTED_EDGE ( 'NONE', *, *, #53, .F. ) ;
#120 = PERSON_AND_ORGANIZATION ( #299, #383 ) ;
#121 = CARTESIAN_POINT ( 'NONE',  ( -6.000000000000000888, 0.000000000000000000, 91.50000000000007105 ) ) ;
#122 = EDGE_LOOP ( 'NONE', ( #206, #308 ) ) ;
#123 = DIRECTION ( 'NONE',  ( -0.000000000000000000, -0.000000000000000000, -1.000000000000000000 ) ) ;
#124 = AXIS2_PLACEMENT_3D ( 'NONE', #240, #123, #64 ) ;
#125 = FACE_OUTER_BOUND ( 'NONE', #214, .T. ) ;
#126 = ORIENTED_EDGE ( 'NONE', *, *, #127, .T. ) ;
#127 = EDGE_CURVE ( 'NONE', #68, #99, #307, .T. ) ;
#128 = CARTESIAN_POINT ( 'NONE',  ( 0.000000000000000000, 0.000000000000000000, 50.00000000000000000 ) ) ;
#129 = DIRECTION ( 'NONE',  ( -1.000000000000000000, 0.000000000000000000, 0.000000000000000000 ) ) ;
#130 = CARTESIAN_POINT ( 'NONE',  ( 0.000000000000000000, 0.000000000000000000, 50.00000000000000000 ) ) ;
#131 = ORIENTED_EDGE ( 'NONE', *, *, #384, .T. ) ;
#132 = DIRECTION ( 'NONE',  ( -1.000000000000000000, 0.000000000000000000, 0.000000000000000000 ) ) ;
#133 = AXIS2_PLACEMENT_3D ( 'NONE', #283, #337, #313 ) ;
#134 = CARTESIAN_POINT ( 'NONE',  ( 0.000000000000000000, 0.000000000000000000, 50.00000000000000000 ) ) ;
#135 = EDGE_CURVE ( 'NONE', #221, #312, #279, .T. ) ;
#136 = CIRCLE ( 'NONE', #256, 6.000000000000000888 ) ;
#137 = ORIENTED_EDGE ( 'NONE', *, *, #53, .T. ) ;
#138 = EDGE_LOOP ( 'NONE', ( #110, #365 ) ) ;
#139 = ADVANCED_FACE ( 'NONE', ( #273 ), #26, .T. ) ;
#140 = EDGE_CURVE ( 'NONE', #207, #382, #286, .T. ) ;
#141 = CARTESIAN_POINT ( 'NONE',  ( 0.000000000000000000, 0.000000000000000000, 0.000000000000000000 ) ) ;
#142 = CARTESIAN_POINT ( 'NONE',  ( 6.000000000000000888, 7.347880794884120722E-16, 8.000000000000000000 ) ) ;
#143 = VECTOR ( 'NONE', #224, 1000.000000000000000 ) ;
#144 = PRODUCT ( '5SU1030_ Anti vibration mount', '5SU1030_ Anti vibration mount', '', ( #202 ) ) ;
#145 = APPROVAL ( #85, 'NON SPECIFICATO' ) ;
#146 = DATE_AND_TIME ( #225, #66 ) ;
#147 = APPROVAL_STATUS ( 'not_yet_approved' ) ;
#148 = ORIENTED_EDGE ( 'NONE', *, *, #140, .T. ) ;
#149 = DATE_TIME_ROLE ( 'creation_date' ) ;
#150 = EDGE_LOOP ( 'NONE', ( #213, #228, #148, #380 ) ) ;
#151 = CARTESIAN_POINT ( 'NONE',  ( -37.50000000000000711, 0.000000000000000000, 50.00000000000000000 ) ) ;
#152 = AXIS2_PLACEMENT_3D ( 'NONE', #187, #309, #9 ) ;
#153 = DATE_AND_TIME ( #340, #35 ) ;
#154 = ORIENTED_EDGE ( 'NONE', *, *, #247, .F. ) ;
#155 = CARTESIAN_POINT ( 'NONE',  ( -6.000000000000000888, 0.000000000000000000, 8.000000000000000000 ) ) ;
#156 = DESIGN_CONTEXT ( 'detailed design', #24, 'design' ) ;
#157 = CARTESIAN_POINT ( 'NONE',  ( 5.500000000000059508, 6.735557395310514993E-16, 92.00000000000000000 ) ) ;
#158 = AXIS2_PLACEMENT_3D ( 'NONE', #13, #75, #194 ) ;
#159 = DATE_AND_TIME ( #218, #96 ) ;
#160 = ADVANCED_FACE ( 'NONE', ( #179 ), #175, .T. ) ;
#161 = LINE ( 'NONE', #22, #220 ) ;
#162 = PLANE ( 'NONE',  #133 ) ;
#163 = EDGE_CURVE ( 'NONE', #276, #196, #169, .T. ) ;
#164 = CONICAL_SURFACE ( 'NONE', #298, 5.500000000000059508, 0.7853981633974587151 ) ;
#165 = FACE_OUTER_BOUND ( 'NONE', #60, .T. ) ;
#166 = AXIS2_PLACEMENT_3D ( 'NONE', #219, #367, #280 ) ;
#167 = CARTESIAN_POINT ( 'NONE',  ( 6.000000000000000888, 7.347880794884119736E-16, 92.00000000000000000 ) ) ;
#168 = CARTESIAN_POINT ( 'NONE',  ( 0.000000000000000000, 0.000000000000000000, 91.50000000000007105 ) ) ;
#169 = CIRCLE ( 'NONE', #211, 37.50000000000000711 ) ;
#170 = ORIENTED_EDGE ( 'NONE', *, *, #374, .F. ) ;
#171 = DIRECTION ( 'NONE',  ( 1.000000000000000000, 0.000000000000000000, 0.000000000000000000 ) ) ;
#172 = PERSON_AND_ORGANIZATION_ROLE ( 'design_owner' ) ;
#173 = APPROVAL_PERSON_ORGANIZATION ( #103, #106, #23 ) ;
#174 = AXIS2_PLACEMENT_3D ( 'NONE', #134, #54, #343 ) ;
#175 = CYLINDRICAL_SURFACE ( 'NONE', #315, 37.50000000000000711 ) ;
#176 = DIRECTION ( 'NONE',  ( 0.000000000000000000, 0.000000000000000000, 1.000000000000000000 ) ) ;
#177 = ORIENTED_EDGE ( 'NONE', *, *, #4, .F. ) ;
#178 = AXIS2_PLACEMENT_3D ( 'NONE', #258, #176, #328 ) ;
#179 = FACE_OUTER_BOUND ( 'NONE', #321, .T. ) ;
#180 = CARTESIAN_POINT ( 'NONE',  ( 0.000000000000000000, 0.000000000000000000, 92.00000000000000000 ) ) ;
#181 = DIRECTION ( 'NONE',  ( -1.000000000000000000, 0.000000000000000000, 0.000000000000000000 ) ) ;
#182 =( GEOMETRIC_REPRESENTATION_CONTEXT ( 3 ) GLOBAL_UNCERTAINTY_ASSIGNED_CONTEXT ( ( #33 ) ) GLOBAL_UNIT_ASSIGNED_CONTEXT ( ( #270, #233, #348 ) ) REPRESENTATION_CONTEXT ( 'NONE', 'WORKASPACE' ) );
#183 = EDGE_LOOP ( 'NONE', ( #7, #377, #385, #57 ) ) ;
#184 = ORIENTED_EDGE ( 'NONE', *, *, #30, .F. ) ;
#185 = CARTESIAN_POINT ( 'NONE',  ( 0.000000000000000000, 0.000000000000000000, 50.00000000000000000 ) ) ;
#186 = CARTESIAN_POINT ( 'NONE',  ( 0.000000000000000000, 0.000000000000000000, 92.00000000000000000 ) ) ;
#187 = CARTESIAN_POINT ( 'NONE',  ( 0.000000000000000000, 0.000000000000000000, 50.00000000000000000 ) ) ;
#188 = CIRCLE ( 'NONE', #234, 5.500000000000059508 ) ;
#189 = ORIENTED_EDGE ( 'NONE', *, *, #354, .F. ) ;
#190 = DIRECTION ( 'NONE',  ( -0.000000000000000000, -0.000000000000000000, -1.000000000000000000 ) ) ;
#191 = AXIS2_PLACEMENT_3D ( 'NONE', #373, #257, #105 ) ;
#192 = DIRECTION ( 'NONE',  ( -0.000000000000000000, -0.000000000000000000, -1.000000000000000000 ) ) ;
#193 = DIRECTION ( 'NONE',  ( -1.000000000000000000, 0.000000000000000000, 0.000000000000000000 ) ) ;
#194 = DIRECTION ( 'NONE',  ( 1.000000000000000000, 0.000000000000000000, 0.000000000000000000 ) ) ;
#195 = ADVANCED_FACE ( 'NONE', ( #320, #165 ), #361, .T. ) ;
#196 = VERTEX_POINT ( 'NONE', #216 ) ;
#197 = DIRECTION ( 'NONE',  ( 0.000000000000000000, 0.000000000000000000, 1.000000000000000000 ) ) ;
#198 = CC_DESIGN_PERSON_AND_ORGANIZATION_ASSIGNMENT ( #58, #89, ( #88 ) ) ;
#199 = CARTESIAN_POINT ( 'NONE',  ( 0.000000000000000000, 0.000000000000000000, 8.000000000000000000 ) ) ;
#200 = PERSON_AND_ORGANIZATION_ROLE ( 'creator' ) ;
#201 = APPROVAL_PERSON_ORGANIZATION ( #356, #42, #376 ) ;
#202 = MECHANICAL_CONTEXT ( 'NONE', #56, 'mechanical' ) ;
#203 = ORIENTED_EDGE ( 'NONE', *, *, #296, .T. ) ;
#204 = COORDINATED_UNIVERSAL_TIME_OFFSET ( 1, 0, .AHEAD. ) ;
#205 = CC_DESIGN_APPROVAL ( #42, ( #17 ) ) ;
#206 = ORIENTED_EDGE ( 'NONE', *, *, #271, .F. ) ;
#207 = VERTEX_POINT ( 'NONE', #250 ) ;
#208 = APPROVAL_DATE_TIME ( #272, #145 ) ;
#209 = ORIENTED_EDGE ( 'NONE', *, *, #84, .F. ) ;
#210 = DIRECTION ( 'NONE',  ( -0.000000000000000000, -0.000000000000000000, -1.000000000000000000 ) ) ;
#211 = AXIS2_PLACEMENT_3D ( 'NONE', #5, #310, #251 ) ;
#212 = APPROVAL_DATE_TIME ( #146, #106 ) ;
#213 = ORIENTED_EDGE ( 'NONE', *, *, #278, .F. ) ;
#214 = EDGE_LOOP ( 'NONE', ( #21, #137, #262, #274 ) ) ;
#215 = DIRECTION ( 'NONE',  ( -1.000000000000000000, 0.000000000000000000, 0.000000000000000000 ) ) ;
#216 = CARTESIAN_POINT ( 'NONE',  ( -37.50000000000000711, 0.000000000000000000, 0.000000000000000000 ) ) ;
#217 = CC_DESIGN_PERSON_AND_ORGANIZATION_ASSIGNMENT ( #120, #200, ( #17 ) ) ;
#218 = CALENDAR_DATE ( 2022, 10, 3 ) ;
#219 = CARTESIAN_POINT ( 'NONE',  ( 0.000000000000000000, 0.000000000000000000, 50.00000000000000000 ) ) ;
#220 = VECTOR ( 'NONE', #192, 1000.000000000000000 ) ;
#221 = VERTEX_POINT ( 'NONE', #339 ) ;
#222 = ADVANCED_FACE ( 'NONE', ( #226 ), #1, .F. ) ;
#223 = DIRECTION ( 'NONE',  ( -1.000000000000000000, 0.000000000000000000, 0.000000000000000000 ) ) ;
#224 = DIRECTION ( 'NONE',  ( -0.000000000000000000, -0.000000000000000000, -1.000000000000000000 ) ) ;
#225 = CALENDAR_DATE ( 2022, 10, 3 ) ;
#226 = FACE_OUTER_BOUND ( 'NONE', #98, .T. ) ;
#227 = CARTESIAN_POINT ( 'NONE',  ( 0.000000000000000000, 0.000000000000000000, 92.00000000000000000 ) ) ;
#228 = ORIENTED_EDGE ( 'NONE', *, *, #293, .T. ) ;
#229 = PRODUCT_DEFINITION_SHAPE ( 'NONE', 'NONE',  #17 ) ;
#230 = DIRECTION ( 'NONE',  ( 0.000000000000000000, 0.000000000000000000, -1.000000000000000000 ) ) ;
#231 = DIRECTION ( 'NONE',  ( -1.000000000000000000, 0.000000000000000000, 0.000000000000000000 ) ) ;
#232 = LINE ( 'NONE', #167, #332 ) ;
#233 =( NAMED_UNIT ( * ) PLANE_ANGLE_UNIT ( ) SI_UNIT ( $, .RADIAN. ) );
#234 = AXIS2_PLACEMENT_3D ( 'NONE', #351, #29, #327 ) ;
#235 = APPROVAL_DATE_TIME ( #325, #42 ) ;
#236 = LINE ( 'NONE', #45, #268 ) ;
#237 = APPLICATION_PROTOCOL_DEFINITION ( 'international standard', 'config_control_design', 1994, #24 ) ;
#238 = CC_DESIGN_PERSON_AND_ORGANIZATION_ASSIGNMENT ( #357, #323, ( #88 ) ) ;
#239 = VECTOR ( 'NONE', #6, 1000.000000000000000 ) ;
#240 = CARTESIAN_POINT ( 'NONE',  ( 0.000000000000000000, 0.000000000000000000, 50.00000000000000000 ) ) ;
#241 = CARTESIAN_POINT ( 'NONE',  ( -5.500000000000059508, 0.000000000000000000, 92.00000000000000000 ) ) ;
#242 = COORDINATED_UNIVERSAL_TIME_OFFSET ( 1, 0, .AHEAD. ) ;
#243 = VECTOR ( 'NONE', #41, 1000.000000000000000 ) ;
#244 = CARTESIAN_POINT ( 'NONE',  ( 37.50000000000000711, 4.592425496802575156E-15, 50.00000000000000000 ) ) ;
#245 = EDGE_CURVE ( 'NONE', #77, #90, #371, .T. ) ;
#246 = FACE_OUTER_BOUND ( 'NONE', #40, .T. ) ;
#247 = EDGE_CURVE ( 'NONE', #312, #221, #267, .T. ) ;
#248 = DIRECTION ( 'NONE',  ( -0.000000000000000000, -0.000000000000000000, -1.000000000000000000 ) ) ;
#249 = ADVANCED_FACE ( 'NONE', ( #333, #94 ), #290, .F. ) ;
#250 = CARTESIAN_POINT ( 'NONE',  ( 6.000000000000000888, 7.347880794884120722E-16, 0.000000000000000000 ) ) ;
#251 = DIRECTION ( 'NONE',  ( 1.000000000000000000, 0.000000000000000000, 0.000000000000000000 ) ) ;
#252 = PRODUCT_RELATED_PRODUCT_CATEGORY ( 'detail', '', ( #144 ) ) ;
#253 = CARTESIAN_POINT ( 'NONE',  ( 0.000000000000000000, 0.000000000000000000, 0.000000000000000000 ) ) ;
#254 = SHAPE_DEFINITION_REPRESENTATION ( #229, #375 ) ;
#255 = VERTEX_POINT ( 'NONE', #55 ) ;
#256 = AXIS2_PLACEMENT_3D ( 'NONE', #199, #79, #231 ) ;
#257 = DIRECTION ( 'NONE',  ( 0.000000000000000000, 0.000000000000000000, -1.000000000000000000 ) ) ;
#258 = CARTESIAN_POINT ( 'NONE',  ( 0.000000000000000000, 0.000000000000000000, 0.000000000000000000 ) ) ;
#259 = EDGE_CURVE ( 'NONE', #90, #255, #284, .T. ) ;
#260 = ORIENTED_EDGE ( 'NONE', *, *, #4, .T. ) ;
#261 = DIRECTION ( 'NONE',  ( 0.000000000000000000, 0.000000000000000000, -1.000000000000000000 ) ) ;
#262 = ORIENTED_EDGE ( 'NONE', *, *, #163, .T. ) ;
#263 = SECURITY_CLASSIFICATION ( '', '', #59 ) ;
#264 = DATE_TIME_ROLE ( 'classification_date' ) ;
#265 = MANIFOLD_SOLID_BREP ( 'Taglio-Estrusione1', #69 ) ;
#266 = LOCAL_TIME ( 15, 3, 7.000000000000000000, #275 ) ;
#267 = CIRCLE ( 'NONE', #174, 6.000000000000000888 ) ;
#268 = VECTOR ( 'NONE', #366, 1000.000000000000000 ) ;
#269 = APPROVAL_ROLE ( '' ) ;
#270 =( LENGTH_UNIT ( ) NAMED_UNIT ( * ) SI_UNIT ( .MILLI., .METRE. ) );
#271 = EDGE_CURVE ( 'NONE', #382, #207, #352, .T. ) ;
#272 = DATE_AND_TIME ( #19, #266 ) ;
#273 = FACE_OUTER_BOUND ( 'NONE', #87, .T. ) ;
#274 = ORIENTED_EDGE ( 'NONE', *, *, #296, .F. ) ;
#275 = COORDINATED_UNIVERSAL_TIME_OFFSET ( 1, 0, .AHEAD. ) ;
#276 = VERTEX_POINT ( 'NONE', #317 ) ;
#277 = DIRECTION ( 'NONE',  ( 1.000000000000000000, 0.000000000000000000, 0.000000000000000000 ) ) ;
#278 = EDGE_CURVE ( 'NONE', #346, #50, #136, .T. ) ;
#279 = CIRCLE ( 'NONE', #152, 6.000000000000000888 ) ;
#280 = DIRECTION ( 'NONE',  ( 1.000000000000000000, 0.000000000000000000, 0.000000000000000000 ) ) ;
#281 = CC_DESIGN_PERSON_AND_ORGANIZATION_ASSIGNMENT ( #291, #118, ( #263 ) ) ;
#282 = ADVANCED_FACE ( 'NONE', ( #25 ), #70, .F. ) ;
#283 = CARTESIAN_POINT ( 'NONE',  ( 0.000000000000000000, 0.000000000000000000, 92.00000000000000000 ) ) ;
#284 = CIRCLE ( 'NONE', #73, 6.000000000000000888 ) ;
#285 = AXIS2_PLACEMENT_3D ( 'NONE', #130, #342, #11 ) ;
#286 = CIRCLE ( 'NONE', #116, 6.000000000000000888 ) ;
#287 = DIRECTION ( 'NONE',  ( 0.000000000000000000, 0.000000000000000000, 1.000000000000000000 ) ) ;
#288 = CARTESIAN_POINT ( 'NONE',  ( -5.500000000000059508, 0.000000000000000000, 92.00000000000000000 ) ) ;
#289 = PLANE ( 'NONE',  #191 ) ;
#290 = PLANE ( 'NONE',  #324 ) ;
#291 = PERSON_AND_ORGANIZATION ( #299, #383 ) ;
#292 = EDGE_LOOP ( 'NONE', ( #170, #63 ) ) ;
#293 = EDGE_CURVE ( 'NONE', #346, #207, #161, .T. ) ;
#294 = ADVANCED_FACE ( 'NONE', ( #364 ), #164, .T. ) ;
#295 = CARTESIAN_POINT ( 'NONE',  ( -37.50000000000000711, 0.000000000000000000, 50.00000000000000000 ) ) ;
#296 = EDGE_CURVE ( 'NONE', #99, #196, #62, .T. ) ;
#297 = ORIENTED_EDGE ( 'NONE', *, *, #117, .F. ) ;
#298 = AXIS2_PLACEMENT_3D ( 'NONE', #227, #230, #193 ) ;
#299 = PERSON ( 'NON SPECIFICATO', 'NON SPECIFICATO', 'NON SPECIFICATO', ('NON SPECIFICATO'), ('NON SPECIFICATO'), ('NON SPECIFICATO') ) ;
#300 = CALENDAR_DATE ( 2022, 10, 3 ) ;
#301 = VECTOR ( 'NONE', #304, 1000.000000000000000 ) ;
#302 = CC_DESIGN_APPROVAL ( #145, ( #263 ) ) ;
#303 = ORIENTED_EDGE ( 'NONE', *, *, #293, .F. ) ;
#304 = DIRECTION ( 'NONE',  ( -0.000000000000000000, -0.000000000000000000, -1.000000000000000000 ) ) ;
#305 = CARTESIAN_POINT ( 'NONE',  ( 37.50000000000000711, 4.592425496802575156E-15, 50.00000000000000000 ) ) ;
#306 = COORDINATED_UNIVERSAL_TIME_OFFSET ( 1, 0, .AHEAD. ) ;
#307 = CIRCLE ( 'NONE', #285, 37.50000000000000711 ) ;
#308 = ORIENTED_EDGE ( 'NONE', *, *, #140, .F. ) ;
#309 = DIRECTION ( 'NONE',  ( 0.000000000000000000, 0.000000000000000000, 1.000000000000000000 ) ) ;
#310 = DIRECTION ( 'NONE',  ( 0.000000000000000000, 0.000000000000000000, 1.000000000000000000 ) ) ;
#311 = LOCAL_TIME ( 15, 3, 7.000000000000000000, #242 ) ;
#312 = VERTEX_POINT ( 'NONE', #49 ) ;
#313 = DIRECTION ( 'NONE',  ( 1.000000000000000000, 0.000000000000000000, -0.000000000000000000 ) ) ;
#314 = PERSON_AND_ORGANIZATION ( #299, #383 ) ;
#315 = AXIS2_PLACEMENT_3D ( 'NONE', #128, #8, #223 ) ;
#316 = CIRCLE ( 'NONE', #338, 6.000000000000000888 ) ;
#317 = CARTESIAN_POINT ( 'NONE',  ( 37.50000000000000711, 4.592425496802575156E-15, 0.000000000000000000 ) ) ;
#318 = EDGE_LOOP ( 'NONE', ( #358, #326, #52, #177 ) ) ;
#319 = DIRECTION ( 'NONE',  ( 1.000000000000000000, 0.000000000000000000, 0.000000000000000000 ) ) ;
#320 = FACE_BOUND ( 'NONE', #379, .T. ) ;
#321 = EDGE_LOOP ( 'NONE', ( #119, #297, #203, #31 ) ) ;
#322 = CC_DESIGN_DATE_AND_TIME_ASSIGNMENT ( #159, #264, ( #263 ) ) ;
#323 = PERSON_AND_ORGANIZATION_ROLE ( 'design_supplier' ) ;
#324 = AXIS2_PLACEMENT_3D ( 'NONE', #141, #197, #81 ) ;
#325 = DATE_AND_TIME ( #300, #311 ) ;
#326 = ORIENTED_EDGE ( 'NONE', *, *, #335, .T. ) ;
#327 = DIRECTION ( 'NONE',  ( 1.000000000000000000, 0.000000000000000000, 0.000000000000000000 ) ) ;
#328 = DIRECTION ( 'NONE',  ( 1.000000000000000000, 0.000000000000000000, 0.000000000000000000 ) ) ;
#329 = CIRCLE ( 'NONE', #166, 37.50000000000000711 ) ;
#330 = EDGE_LOOP ( 'NONE', ( #115, #184, #349, #189 ) ) ;
#331 = DIRECTION ( 'NONE',  ( 0.000000000000000000, 0.000000000000000000, 1.000000000000000000 ) ) ;
#332 = VECTOR ( 'NONE', #15, 1000.000000000000000 ) ;
#333 = FACE_BOUND ( 'NONE', #122, .T. ) ;
#334 = AXIS2_PLACEMENT_3D ( 'NONE', #65, #331, #277 ) ;
#335 = EDGE_CURVE ( 'NONE', #255, #221, #232, .T. ) ;
#336 = ORIENTED_EDGE ( 'NONE', *, *, #135, .F. ) ;
#337 = DIRECTION ( 'NONE',  ( 0.000000000000000000, 0.000000000000000000, 1.000000000000000000 ) ) ;
#338 = AXIS2_PLACEMENT_3D ( 'NONE', #38, #44, #215 ) ;
#339 = CARTESIAN_POINT ( 'NONE',  ( 6.000000000000000888, 7.347880794884119736E-16, 50.00000000000000000 ) ) ;
#340 = CALENDAR_DATE ( 2022, 10, 3 ) ;
#341 = CYLINDRICAL_SURFACE ( 'NONE', #124, 37.50000000000000711 ) ;
#342 = DIRECTION ( 'NONE',  ( 0.000000000000000000, 0.000000000000000000, 1.000000000000000000 ) ) ;
#343 = DIRECTION ( 'NONE',  ( 1.000000000000000000, 0.000000000000000000, 0.000000000000000000 ) ) ;
#344 = AXIS2_PLACEMENT_3D ( 'NONE', #18, #51, #83 ) ;
#345 = FACE_OUTER_BOUND ( 'NONE', #318, .T. ) ;
#346 = VERTEX_POINT ( 'NONE', #142 ) ;
#347 = CARTESIAN_POINT ( 'NONE',  ( 0.000000000000000000, 0.000000000000000000, 0.000000000000000000 ) ) ;
#348 =( NAMED_UNIT ( * ) SI_UNIT ( $, .STERADIAN. ) SOLID_ANGLE_UNIT ( ) );
#349 = ORIENTED_EDGE ( 'NONE', *, *, #245, .T. ) ;
#350 = APPROVAL_STATUS ( 'not_yet_approved' ) ;
#351 = CARTESIAN_POINT ( 'NONE',  ( 0.000000000000000000, 0.000000000000000000, 92.00000000000000000 ) ) ;
#352 = CIRCLE ( 'NONE', #28, 6.000000000000000888 ) ;
#353 = VECTOR ( 'NONE', #210, 1000.000000000000000 ) ;
#354 = EDGE_CURVE ( 'NONE', #255, #90, #93, .T. ) ;
#355 = ORIENTED_EDGE ( 'NONE', *, *, #335, .F. ) ;
#356 = PERSON_AND_ORGANIZATION ( #299, #383 ) ;
#357 = PERSON_AND_ORGANIZATION ( #299, #383 ) ;
#358 = ORIENTED_EDGE ( 'NONE', *, *, #259, .T. ) ;
#359 = ORIENTED_EDGE ( 'NONE', *, *, #354, .T. ) ;
#360 = CARTESIAN_POINT ( 'NONE',  ( -6.000000000000000888, 0.000000000000000000, 92.00000000000000000 ) ) ;
#361 = PLANE ( 'NONE',  #10 ) ;
#362 = DIRECTION ( 'NONE',  ( 0.000000000000000000, 0.000000000000000000, -1.000000000000000000 ) ) ;
#363 = ADVANCED_FACE ( 'NONE', ( #46 ), #289, .T. ) ;
#364 = FACE_OUTER_BOUND ( 'NONE', #183, .T. ) ;
#365 = ORIENTED_EDGE ( 'NONE', *, *, #278, .T. ) ;
#366 = DIRECTION ( 'NONE',  ( -0.000000000000000000, -0.000000000000000000, -1.000000000000000000 ) ) ;
#367 = DIRECTION ( 'NONE',  ( 0.000000000000000000, 0.000000000000000000, 1.000000000000000000 ) ) ;
#368 = CC_DESIGN_SECURITY_CLASSIFICATION ( #263, ( #88 ) ) ;
#369 = AXIS2_PLACEMENT_3D ( 'NONE', #27, #112, #171 ) ;
#370 = DIRECTION ( 'NONE',  ( -1.000000000000000000, 0.000000000000000000, 0.000000000000000000 ) ) ;
#371 = LINE ( 'NONE', #288, #239 ) ;
#372 = VERTEX_POINT ( 'NONE', #78 ) ;
#373 = CARTESIAN_POINT ( 'NONE',  ( 0.000000000000000000, 0.000000000000000000, 8.000000000000000000 ) ) ;
#374 = EDGE_CURVE ( 'NONE', #196, #276, #82, .T. ) ;
#375 = ADVANCED_BREP_SHAPE_REPRESENTATION ( '5SU1030_ Anti vibration mount', ( #265, #369 ), #182 ) ;
#376 = APPROVAL_ROLE ( '' ) ;
#377 = ORIENTED_EDGE ( 'NONE', *, *, #101, .T. ) ;
#378 = AXIS2_PLACEMENT_3D ( 'NONE', #180, #95, #181 ) ;
#379 = EDGE_LOOP ( 'NONE', ( #154, #336 ) ) ;
#380 = ORIENTED_EDGE ( 'NONE', *, *, #108, .F. ) ;
#381 = AXIS2_PLACEMENT_3D ( 'NONE', #186, #190, #97 ) ;
#382 = VERTEX_POINT ( 'NONE', #14 ) ;
#383 = ORGANIZATION ( 'NON SPECIFICATO', 'NON SPECIFICATO', '' ) ;
#384 = EDGE_CURVE ( 'NONE', #372, #77, #188, .T. ) ;
#385 = ORIENTED_EDGE ( 'NONE', *, *, #259, .F. ) ;
ENDSEC;
END-ISO-10303-21;
